All the Earth Will Sing Your Praises

Here are more chord patterns, in Paul Baloche's "All the Earth Will Sing Your Praises', in the Offering album. The chords here are plucked quite fast, so you might need to do some finger plucking.



Tabs:
-------------5--|---------------|

---6---6-8------|-5---5-6---8---|
-5---5-----5--5-|---5-----5---5-|
----------------|---------------|
----------------|---------------|
----------------|---------------|
F . . C

-----------5----|-----------5-----|
-----6---6---6--|-----6---6---6---|
-5-7---7------7-|3-s5---5-------5-|
----------------|-----------------|
----------------|-----------------|
----------------|-----------------|
Dm . . Bb

1 comment:

guitar_pic said...

Good job Kenny! Can you also do a video of the electric guitar solo of this song> Thanks!