I Will Follow


By Derrick

Here's I Will Follow by Chris Tomlin. I included the little fills I improvised into the tabs. 


NOTE: The video is sped up by 2% to avoid copyright and thus, the pitch is changed so don't play along with my video but use it as a reference.

Intro:

|--------------------------------------
|--11-10-8-11-10------11-------
|------------------------10----7-10
|--------------------------------------
|--------------------------------------
|--------------------------------------

Verse:
|-------------------------------------------------------------------------------------
|----11-----------11-----------------10-------------------------------------------
|---------8----------------7-----------------10----7-----10----------------------
|--8------------8----------------10------------------------------------------------
|-------------------------------------------------------------------------------------
|-------------------------------------------------------------------------------------

Pre-Chorus:
|---------------------
|--11-10-8-8/10-
|---------------------
|---------------------
|---------------------
|---------------------

Chorus:
|----------------------------------------------------------------------------------------------------------------------------------
|--11-10-8-11-10-----11----------11-10-8-11-10----11----------------------------11-10-8-11-10----11-------
|-----------------------10-----7-10-----------------------10-----7/10--10-12-14-12----------------------10----7-10
|----------------------------------------------------------------------------------------------------------------------------------
|----------------------------------------------------------------------------------------------------------------------------------
|----------------------------------------------------------------------------------------------------------------------------------

Bridge
|---------------------]------------------
|---------------6----]--6-6-8-10-11
|--7/8--7-------x3-]-----------------
|-------------8------]-----------------
|---------------------]-----------------
|---------------------]-----------------

5 comments:

Rodney said...

Great work!

istillgotmyguitar said...

I really appreciate a site where players try to help one another progress in their musicianship. It’s the kind of thing that makes it possible to keep learning and becoming a better guitarist. Great post keep up the hard work. Check these out IStillGotMyGuitar.

Chuck Hubbs said...

Awesome...thank you for the post...I'd like to see the tab for your ending rif too! :)

Jee said...

Where did the video go? It would be good to actually hear this.

cecillia said...

Nice information,, terrimaksih infonya..sukses much for sharing the info and the website is always to be the best and do the best to the next specifications and price information ..