Real Life

By Preston






Intro
----------------------14b15-------------------------------------
8-7-7h8---------------------15/17---------------15--12--12------
----------- 7/9---------------------14/16----14-----------14-12-
----------------------------------------------------------------
----------------------------------------------------------------
----------------------------------------------------------------

Solo
-----------------------------------------------------
-----------------------------------------------------
------7h9-9/11-7h9-------11b12------------11b12------
---9-----------------------------------12---------9--
-----------------------------------------------------
-----------------------------------------------------
  
--------------------------------------------------------
-------15-----------------------------------------------
--12------------12h14--------12h14--14/16--12-----------
-------------12----------------------------------14-----
--------------------------------------------------------
--------------------------------------------------------


---------------------------------------------------------------------
--12/15---13-13---12-12----10----------------10--10h12—12/15---12-12-
---------------------------------12---(x2)---------------------------
---------------------------------------------------------------------
---------------------------------------------------------------------
---------------------------------------------------------------------


-------15--17—17b19—17p15h17--------------17b19--15—15h17---19--15----
--15------------------------------------------------------------------
----------------------------------------------------------------------
----------------------------------------------------------------------
----------------------------------------------------------------------
----------------------------------------------------------------------


----------------------------------------------------------------------
--17b19r15-------------15---------------------------------------------
-------------------14h16-----16--14—12/14-----------------------------
-------------------------------------------12/14/12--------7/5--------
----------------------------------------------------------------------
----------------------------------------------------------------------


3 comments:

toramip45 said...

I know how to play guitar from this site. Very useful. eep uo the good work.
guitar lessons online
how to play the guitar online



cecillia said...

Nice info. Thank you.
all face the problem. finish with a calm heart and brain are cold Latest Price and Specifications Motorcycle and are trying so hard ...

cecillia said...
This comment has been removed by the author.