You

By Luan






intro/chorus
E|--11-----9-----7----7--|
B|--12-----11----9----7--|
G|--13-----11----9----8--| 
D|--13----------------9--|
A|-----------------------|
E|-----------------------|

verse
E|-------------|
B|-----7----7--|
G|-------------| repeat
D|--9----9-----|
A|-------------|
E|-------------|

pre chorus
E|--11----14----7----9-----11----9-----7--|
B|--12----16----9----11----12----11----9--|
G|--13----16----9----11----13----11----9--|
D|--13---------------------13-------------|
A|----------------------------------------|
E|----------------------------------------|

Inrumental 
oh oh oh...
E|--------------------------------------|
B|--12--14--16------14--12--14--17--16--|
G|--------------------------------------| repeat
D|---9--11--13--2X--11---9--11--14--13--|
A|--------------------------------------|
E|--------------------------------------|

5 comments:

Henry Baldoceda said...
This comment has been removed by the author.
Henry Baldoceda said...
This comment has been removed by the author.
Henry Baldoceda said...

Nice song but just I wanna show you how to play YOU (Miami Version)
Sorry for all those mistakes... but now is ok...
:)

Intro: with delay
E ------------------11--------------
B --12-12-12-14----12-12-------- (x4)
G -----------------------------11-11--

Verse:
E ------------------------------
B ----7---7---7--7--7---7---7---
G ------------------------------
D --9---9---9--9---9---9---9----

Pre: with delay
E --------------------------------
B --------12-11------------12-11-----
G -----11-------------------------
D --13---------------11-13-----------

E --------------------------------
B --------12-11-------------------
G -----11---------13-11-9-8-------
D --14--------------------------13----

E --------------------------------
B --------12-11---------12-11-----
G -----11-------------------------
D --13------------11-13-----------14-

E --------------------------------
B --12------12------12------------
G ---14(b)---14(b)---14(b)--------
D --------------------------------

Chorus: with delay
E ------------------11----------------
B --12-12-12-14----12-12----------
G -----------------------------11-11----

E ------------------11----------------
B --12-12-12-14----12-12-11-11----
G --------------------------------

E ------------------11----------12-11----
B --12-12-12-14----12-12----------
G --------------------------------

E ------------------11----------------
B --12-12-12-14----12-12----------
G -----------------------------11-11----

Instrumental:
E -----------------------------------
B --12---14---16---12---14---16---14-
G -----------------------------------
D ---9---11---13----9----11---13---11-

E ----------------------------------
B --12---14---17---16---------------
G ----------------------------------
D ---9---11---14---13---------------

Last Pre: with delay
E -------------------------------
B --12(s)---16(s)---9(s)---11(s)- (x2)
G -------------------------------
D -------------------------------

ufff... is a lot... ok guys enjoy and God Bless You!!!

Julien13 said...

Hi Luan,

First, sorry for my english, I'm from Belgium and I'm french speaker.

I just wish to know what for a pedal you use for the "overdrive" at the beginning of the song. Else if, what makes this typical lead electric guitar sound by Hillsong ?

Thank you,
Best regards,
Julien

cecillia said...

indeed a cool website like this must, always puts a lot of satisfaction and benefit its visitors. specifications and price honda cbr