Bones (Hillsong United)

By Aaron





Guitar 1
Both pickups
Overdrive
Reverb

Verse: (Volume swells):
      A                  F#m          D                                  A
e------------------------------------------------------------|
B--10------------9--s5-------4-----------2--------------0----|
G------------------------------------------------------------|
D------------------------------------------------------------|
A------------------------------------------------------------|
E------------------------------------------------------------|


Interlude:
e------------------------------------------------------------|
B---10------p9-------------s2__________----------------------|
G------------------------------------------------------------|
D------------------------------------------------------------|
A------------------------------------------------------------|
E------------------------------------------------------------|


Verse 2:
Clean boost
        A                        F#m      D                                                            A    
e--------------0------------------5-----------5---------0------0-
B----0-----0--------------3----3--------3-----------0-----0------
G-2-----2-----(x4)---2------2---------2----2----2---------(x2)---
D-------------------0---------------0----------------------------
A----------------------------------------------------------------
E----------------------------------------------------------------


Instrumental:


e--------------------------------------------|
B----10p9-------------------------------10---|
G-------------11p9--------9-------9----------|
D----------------------11-------9------------|
A--------------------------------------------|
E--------------------------------------------|

4 comments:

Unknown said...
This comment has been removed by the author.
Guitar1969 said...

Good Job. Love this song. I like how you show the underlying chords changes along with your melody lines. It helps to understand why they work together.

rickl said...

The "4" (under the D chord) needs to be a "3". Love this song.

cecillia said...

all of which have been presented by this website was perfect, good appearance and artikelnya..penuh color and full of meaning .. specifications and price