Be the Difference

By Kenny

Here's Be the Difference from the new Hillsong album.




Use the usual dotted 8th note delay throughout.

Intro/Verse
Play and hold an A chord, followed by

-------------------------
-10----9--------7--------
-9-...-9-(x3)---7....----
-------------------------
-------------------------
-------------------------

Pre-chorus
-------------------------------------
---7-10p9-7---------7-10p9-7---------
-------------------------------------
-9----------(x2)--7----------(x2)----
-------------------------------------
-------------------------------------

Chorus
----------------------------------
----------------------------------
--14-------14-14-13-13--9-9-9-----
----------------------------------
--12....---12-12-11-11--7-7-7-----
----------------------------------

Bridge
Fill in the gaps between notes with single string mutes
e-9-9--9-9--9-9--7-7-9-----
b----------------------7---

e-9-9--9-9--9-9--7-7-9b10r9--7----
b---------------------------------

6 comments:

Dani said...

Hey:)
Could you cover "Rise" from that album, please?
would be great of you:)
thanks forwards :)

Joel said...

Just wanted to say thx for all the videos yo post. they have help me come a long way with worship. God bless and thanks agian. :)

JayK said...

They have each song on the new live album with each instrument emphasized and shown, this is the one for the difference

http://www.youtube.com/watch?annotation_id=annotation_688088811&v=7VHZyLqVZ40&feature=iv#t=11s

Ewiic said...

could you cover "Yours Forever", THANKS! :D
God Bless you guys! n.n

Jun said...

Can you do "The Difference" on Bass?

cecillia said...

Nice info given, may be a blessing and benefit us all Simple Home Interior Design | Price And Specification Nissan Juke (NEW), Unique Cars and Luxury 2015 | Falling Flying Aeromobil Cars When Tested Try | Specifications and Price Honda NM4 Vultus