Devoted

Here's Devoted by Citipointe

By Matt



The Intro is strong dotted 8th note delay with a crisp clean sound.
e--------------------------|
B-----------10--11--10--11-| x7
G--10-10-------------------|

then end it with
e-------------------------|
B------------10-13-10-13--|
G--10-10------------------|

Prechorus
e-10--12--13--15--17--18--15--|
B-----------------------------|
G-----------------------------|

The chorus is just a line that I made up myself to add some dynamics to the song.This is not the exact tab for what I played, but its a skeleton of it and should help anyone who wants to play it like I did.

Chorus
e---------------------------------------------------
B----10------11--13-------------13----11--------13--
G-10------10---------12---10-12----12----10--12-----

For the outro, do what i said in the video - "improv"! There is no way for me to accurately type out what I played but hereare the notes that I used. it's basically the F major scale make it your own and be creative.

e-----------------------------10-12-13-15-17-18---|
B--------------10-11-13---------------------------|
G-9-10-12-----------------------------------------|

7 comments:

Mumbles said...

Hey Bro,what are you delay settings and which delay are you using?I have a dd20 and looking for some good sounding patches for it.Nice work btw!!!

ebc7ee4e-3aac-11e0-aa41-000bcdcb5194 said...

the time signature is the dotted 8th note just tapped into the tempo with a 50% mix. I run through a POD xt live

Mattio said...

don't know why it just put that weird text where my name should be...

Luke said...

Mind sharing you xt live settings/patch. Sounds great.

Mattio said...

go to my youtube channel. I have a video with all my patches I use for worship along with download links. (it's called POD xt live //: Worship guitar patches)

Garrett said...

Sounds great man, that delay fills out the sound nicely.

cecillia said...

actual information, all information which is helpful given once for all children's bedrooms | toyota new car price | tips on buying a vehicle | the price of motorcycles and cars