Go

Here's Go by Hillsong United, in their newest Aftermath album. Also, do check out this blog at GuitaCross.BlogSpot.Com, and his YouTube channel (user name: LC5Chromo7)


By Luan





Tone: B


Intro:
e----------------------------------
B----------------------------------
G---------------------------------- Repeat
D----------------6-----------------
A------------------7-7-7-7-7-7/9-9-
E--7-7-7-7-7-4-7-------------------

Verse:
G--------------------
D--9---Repeat--7/9---
A--------------------

Pre Chorus:
e--14-----------------9---------

B-----14-16-------------12b14---
G-----------16----3X------------
D--------------16---------------
A-------------------------------
E-------------------------------



Chorus:
B E
e-9------11--------
B-12b14--14b16-----

Bridge:
e--14-----------------9-------
B-----14-16-----------12b14---
G-----------16------7X--------
D--------------16-------------

A-----------------------------
E-----------------------------


God Bless u!!!

6 comments:

Jeremy said...

Hey Guys Kenny Made a mistake on the website it is http://guitarcross.blogspot.com/

also check out my new video cover of freedom is here http://www.youtube.com/watch?v=77JITpb97n4

Jeremy said...

Hey Guys Kenny Made a mistake on the website it is http://guitarcross.blogspot.com/

also check out my new video cover of freedom is here http://www.youtube.com/watch?v=77JITpb97n4

Matt said...

haha. I just finished making a video of this song to send into the site. and then i open it and there is your post. haha

iser said...

Nice... Can anyone do me a favor? can anyone give me zoom g1xnext patch settings... for hosanna and evermore? pls... thanks and God Bless...

wyunot said...

i appreciate this so much we do this song in church but did'nt know what to play,thanks heaps

cecillia said...

actual information, all information which is helpful given once for all Toyota Will Use Technology Leading Mazda? | Price And Specifications Honda CBR1000RR SP 2015 | Best Modern Minimalist House Pictures Latest 2015 | Latest Price and Specifications Kawasaki Ninja H2 and H2R in 2015