Freedom Reigns

By Matt

Here's one from the new Jesus Culture album "Come Away".



Intro
I may have played it a little different in the video but these are the right notes

e-------------------|-----------------------------------|
B-------12----------|-----12-14--------------9-------9--|
G----------13-11-13-|------------13-11-13---------------|
D-14----------------|-13-------------------11----11-----|
Instrumental
Again, do as I say, not as i do.

e12-------------12------------------
B--12-14-----------12-14------------
G--------13-11-9---------13-11-13---
D--------------------------------13-


e--------------------------
B-12-14-------------9----9-
G------13-11-13------------
D----------------11----11--

The speed of picking depends on your delay setting and how you are building the song in a live setting.The instrumental part is played from the start of the solo through the remainder of the song during the chorus.

4 comments:

CM said...

great blog!! I like all the tabs, I'll be starting my own blog soon, will tons of music theory and classes.


check it out when you can it's


greatestguitars.blogspot.com

let me know what you think.

Blakley Tidmore said...

what is the meter in the intro? I know in the verse they kick into a 4/4 count. I can't figure out the count on the intro...please help!!!

Marius Kruger said...

Thanks for this, helped me a lot.
I tweaked it a little so it makes more sense to me:


Intro
x2
e----------------------|-----------------------------------|
B-------12-------------|-----12-14-------------------------|
G----------13-11----13-|------------13-11-13----13------13-|
D-14-------------------|-13-------------------11----11-----|

Instrumental
x2
e-12-------------------|-11--------------------------------|
B-------12-------------|-----12-14-------------------------|
G----------13-11----13-|------------13-11-13----13------13-|
D----------------------|----------------------11----11-----|

cecillia said...

actual information, all information which is helpful given once for all Toyota Will Use Technology Leading | Price And Specifications Honda CBR1000RR SP | Best Modern Minimalist House Pictures Latest | Latest Price and Specifications Kawasaki Ninja H2 and H2R