Get Up

By Jerome

Here's the first song of Planetsharker's album, One. I used drop-D tunning, God bless and enjoy!



Intro and Verse:
---------------------------------------
---------------------------------------
---------------------------------------
--0--7-8-8-5--2-3-3-0--7-8-8-5---------
--0--7-8-8-5--2-3-3-0--7-8-8-5---------
--0--7-8-8-5--2-3-3-0--7-8-8-5-0-3-0-3-

Just palm mute it in the verse part.

Pre-Chorus
--------------------------------
--------------------------------
--------------------------------
--7---2---3---5---3---5---7-----
--5---0---1---3---1---3---5-----
--------------------------------

Chorus:
---------------------------
-----------5--5-5----------
---------0-5--5-5-0-5-5----
-0-0-3-3-0-3--3-3-0-5-5----
-0-0-3-3-0--------0-5-5----
-0-0-3-3-------------------

Followed by: Power Chords

Bb and C

rpt several times.


Instrumental and Bridge:
--------------------------------------
--------------------------------------
--------------------------------------
--------------------------------------
-0------------10-12-0------------10-9-
-0-10-12-10-12------0-10-12-10-12-----

--------------------------------------
--------------------------------------
--------------------------------------
--------------------------------------
-0------------10-12-0------------10-9-
-0-10-12-10-12------0-10-12-10-12-----

--------------------------------------
--------------------------------------
--------------------------------------
--------------------------------------
-8------------10-12-10------------10-9-
-8-10-12-10-12------10-10-12-10-12-----

--------------------------------------
--------------------------------------
--------------------------------------
--------------------------------------
-12------------10-12-0-0-0-12/--------
-12-10-12-10-12------0-0-0-12/--------

Palm muting here:

--------------------------------------
--------------------------------------
--------------------------------------
--------------------------------------
-------------10-12-------------10-9---
-12-12--10-12------12-12--10-12-------

--------------------------------------
--------------------------------------
--------------------------------------
--------------------------------------
-------------10-12-------------10-9---
-12-12--10-12------12-12--10-12-------

--------------------------------------
--------------------------------------
--------------------------------------
--------------------------------------
-----------10-12-------------10-9-----
-8-8--10-12------10-10--10-12---------

-----------------------------------------
-----------------------------------------
----------------------------------------
----------------------------------------
-------------10-12-------------10-9------
-12-12--10-12------12-12--10-12-----12-12-

Then again the instrumental fast riff.

Followed by a Strong Strumming of:

D D D Bb C
D D D Bb C

and then back to Chorus.

12 comments:

Ramon Rivera said...

nice tone. What did you use as well as settings for it?

Guitar_man32@yahoo.it said...

Same settings that i used at my recent video. Heavy Distortion

-Jerome

Krishin said...

Great Vid ..!

Was wondering ..all of the stuff at our church i play in standard tuning...how would i get these tabs to standard tuning ?

yi-en said...

if you want to play it in standard tuning, you have to shift all the notes on the 1st D-string, or in your case, the 1st E-string, down by 2 frets. so if the tab says 10-12-10-12, you play 8-10-8-10. the first string only! but that also means you can't play the open string notes on that string, so it definitely won't sound the same or as good.

i recommend you play it in drop-D and then tune back to standard tuning or have another guitar ready in standard tuning if you have one. if i'm not wrong, most of the praise songs in the ONE album are in drop-D tuning.

ricardo said...

thanx bro... ^_^

Krishin said...

Thanks for the advice ! I think the 2nd guitar would be the best option.

Maxy said...

Thanks for notes!!

http://christian-downloads.co.cc

JayK said...

Hey, i was wondering if you'd be able to tell me what the synth they use here is called. Im trying to find one that does similar for my youth group.

Thanks and God bless

Matt said...
This comment has been removed by the author.
Matt said...

thanks for this. but it sounds wrong in parts.

in the intro, before you play the F chord, the E doesn't sound like it belongs there. Probably should be a D

since i can't tab it out properly in a comment, i'll just tab the bass notes.
it should be (i think)
0--7-8-8-5--0-3-3-0--7-8-8-5--0-3-3-0

The pre chorus should be (again, just how it sounds to me)
--7---9---10--12----------------
--x---x---x---x---8---3---0---12--
--5---7---8---10--8---3---0---12--
--0---0---0---0---8---3---0---12--


Chorus isn't right ether.
Should be:

---------0-5--5-5-0-x-x----
-0-0-3-3-0-5--5-5-0-5-5----
-0-0-3-3-0-3--3-3---2-2----
-0-0-3-3-------------------

Everything else was spot on.
Great job on the instrumental part.

-Jeian- said...

I think the chorus should start on D power chord. ?

jHay said...

hi.., can u please put the seeting., for zoom g1.,. and settings of amp,. please... i nid ur tone.,. brod ^^ thankz