Arms that Hold the Universe

Here's a simple one by Fee.. made some mistakes in the chorus though!



Intro/Interlude
---------------9-8----8---8------------------
----9----9---9------9---9---9s11-11s9--------
-10---10---8---------------------------------
---------------------------------------------
---------------------------------------------
---------------------------------------------

Chorus
Repeat each note several times
-------------------------
-14--18--16----11--13----
-------------------------
-11--15--13----8---10----
-------------------------
-------------------------

2 comments:

roxy said...

Excellent weblog, keep up the good work. I read a lot of blogs on a daily basis and for the most part, people lack substance but, I just wanted to make a quick comment to say I’m glad I found your blog. Thanks,
A definite great read…
anti keylogger

Justin Chon aka UB said...

The song is in the wrong album, suppose to be in hope rising ;]