You Have Saved Us

Here's a song from Paul Baloche's album, Glorious.



Intro/Interlude
---9-------7-------7--------------
-----10------9--------9--7---7----
-9-------9-------9---------9------
----------------------------------
----------------------------------
----------------------------------

---9--------7-----------------------
-----10-------9-----9----9b10r9-10--
-9--------9-------9---9-------------
------------------------------------
------------------------------------
------------------------------------

Verse
Just a few light fills:
-14--12-------------12------------------
--------
---------10------10----10-9h10s12-10---------5--
-----------------------------------------4s6----
------------------------------------------------
------------------------------------------------
------------------------------------------------

Chorus
D A E F#m
D A E

Instrumental
Play each note several times
---------------------------------

---------------------------------
-16--18---14----14--13--11-------
---------------------------------
-14--16---12----12--11--9--------
---------------------------------

--------------17-16--14----
-12--14--17----------------
--------------14-13--11----
-9---11--14----------------
---------------------------
---------------------------

Download video

2 comments:

ricardo said...

wow!
first comment.


thank you so much bro,,, ^_^

Lance said...

Your work here is changing my life. Seriously, this is so awesome, I don't even know how to start thanking you.