This is Our God

Kenny: Its been tabbed before, there are variations here...

by DPark



Intro
E|---------------------------------------------|
B|---------------------------------------------|
G|---------------------------------------------|
D|-6(x8)-9-(x8)-2(x8)-7(x6)-7(x2)--------------|
A|-7-----11-----4-----7-----9------------------|
E|---------------------------------------------|x2


Verse1
E|-------------------------------
B|-------------------------------
G|-------------------------------
D|-6(x8)-9-(x8)-2(x8)-7(x6)-7(x2)
A|-7-----11-----4-----7-----9----
E|-------------------------------

---------------------------|
---------------------------|
---------------------------|
-6(x8)-9-(x8)-2(x8)-7(x8)--|
-7-----11-----4-----7------|
---------------------------|


Your grace…


E|----------------------------------------------|
B|----------------------------------------------|
G|----------------------------------------------|
D|-4(x8)-6(x8)-7(x8)-7(x8)-4(x8)-6(x8)-7(x16)---|
A|-6-----7-----7-----9-----6-----7-----7--------|
E|----------------------------------------------|

And I will fall…



Turnaround before Verse 2

E|--------------------------------|
B|--------------------------------|
G|--------------------------------|
D|-6(x8)-9-(x8)-2(x8)-7(x6)-7(x2)-|
A|-7-----11-----4-----7-----9-----|
E|--------------------------------|x2



Verse 2
E|-------------------------------
B|-------------------------------
G|-------------------------------
D|-6(x8)-9-(x8)-2(x8)-7(x6)-7(x2)
A|-7-----11-----4-----7-----9----
E|-------------------------------

---------------------------|
---------------------------|
---------------------------|
-6(x8)-9-(x8)-2(x8)-7(x8)--|
-7-----11-----4-----7------|
---------------------------|


Your presence in me…

E|-------------------------------------------|
B|-------------------------------------------|
G|-------------------------------------------|
D|-4(x8)-6(x8)-7(x8)-7(x8)-4(x8)-6(x8)-7(x16)|
A|-6-----7-----7-----9-----6-----7-----7-----|
E|-------------------------------------------|

And I will fall…



Interlude/Instrumental before Chorus

E|---12---12----16---11--11---
B|-12---12---------12--12-----
G|----------------------------
D|-----------------------------
A|-----------------------------
E|-----------------------------

-14---9--9-11-12-------12-12-12----|
----10-10--------9-9h10--9--9---9--|
-----------------------------------|
-----------------------------------|
-----------------------------------|
-----------------------------------|



E|---12---12----16---11--11--
B|-12---12---------12--12----
G|---------------------------
D|---------------------------
A|---------------------------
E|---------------------------

--14---9--9-11-12-------12-12(x16)--|
-----10-10--------9-9h10---9--------|
------------------------------------|
------------------------------------|
------------------------------------|
------------------------------------|


E|-12(x16)-11(x8)14(x6)12(x2)-9-(x6)10(x2)12(x4)12-12-12-12-12(x16)|
B|-12------12----12----12-----10----10----10----9--9-h10-10-9----|
G|-9-------11----11----11-----9-----9-----9-----9--9--9--9--9----|
D|-9-------------------------------------------------------------|
A|---------------------------------------------------------------|
E|---------------------------------------------------------------|



Chorus

E|-12(x16)-11(x8)14(x6)12(x2)-9-(x6)-
B|-12------12----12----12-----10-----
G|-9-------11----11----11-----9------
D|-9---------------------------------
A|-----------------------------------
E|-----------------------------------

-10(x2)12(x4)12-12-12-12-12(x16)|
-10----10----9--9-h10-10-9------|
-9-----9-----9--9--9--9--9------|
----
----------------------------|
--------------------------------|
--------------------------------|


Freely you gave it all…

E|-12(x16)-11(x8)14(x6)12(x2)-9-(x6)-
B|-12------12----12----12-----10-----
G|-9-------11----11----11-----9------
D|-9---------------------------------
A|-----------------------------------
E|-----------------------------------

-10(x2)12(x4)12-12-12-12-12(x16)|
-10----10----9--9-h10-10-9------|
-9-----9-----9--9--9--9--9------|
----
----------------------------|
--------------------------------|
--------------------------------|

Lifted on high…

1 comment:

Timmy Lee said...

what key is this in?