Today is the Day (Paul Baloche)

Here's the rather difficult instrumental to Paul Baloche's version of the song, frankly I didn't really nail it well in the video below... also check out the full song here! Also, do look at the other tabs on the forum.



Also, use the usual dotted 8th note delay throughout.


Tabs
------------------------------------------
-13----11-13----11-13---------------------
----12-------12--------9-9-9-10--10-10-10-
------------------------------------------
------------------------------------------
------------------------------------------
X2

Fast part: mute the lower string slightly so that the notes don't sound mashed up. Rake the two strings in one stroke, so as to go faster. If its tough to keep up, practice at a slower pace first. Repeat each section several times:

----------|------------|----12h13--|----13h15-|
----12h13-|-----13h15--|-13--------|-13-------|
-12-------|--12--------|-----------|----------|
----------|------------|-----------|----------|
----------|------------|-----------|----------|
----------|------------|-----------|----------|

-20---17--------------------------
---------17---15-13p12------------
-----------------------12---------
--------------------------12h14---
----------------------------------
----------------------------------

Download video

2 comments:

eggsally said...

It's awesome that you already put this up. I've been playing around with it too ever since they posted it the other night. I love this version now.

Jeff V said...

I have a Boss DD-20, set on dotted eighth. Using tap tempo, my repeats are not a rapid as this. How do I get the rapid dotted eighths that are in tempo?
Jeff