Everything Falls

By Fee, from their new album, Hope Rising... a song that's hard not to like!



Intro

Sounds alot like Planetshaker's Secret Place...
---------------------------------------
----
-----5-5-----5-5-----5-------5-5---6-5-----
-5h7-----5h7-----5h7-----5h7-----5-----7-5-
-------------------------------------------
-------------------------------------------
-------------------------------------------

Verse + Chorus
Am F C G

There was this bit where I played some lead.. was actually covering up some mistakes I made :P


Bridge
---3--------0-----------3------3---
-----5----3----(x3)---3------3-----
-5------5-----------4------4-------
-----------------------------------
-----------------------------------
-----------------------------------

7 comments:

Joe said...

Great job as always, thanks for introducing me to this song. Keep up the Good work.

Simon said...

very very well done! sounds great =)
rock on bro!
be blessed and worship_god

PS: always wonder what guitar you have.. also the blue one you had before.

Micah said...

Is that a PRS? And if it is, I guess you could say(if you buy the right one) a very good guitar for both clean and distortion right?

Aaron said...

hey keeny howd u do that epic high end frequency sound towards the end of the intro. Could you put a tutorial on that please?!

ChurchMediaDesign said...

Thank you for doing a song from this FEE album, I would love for you you do more from this album.

Patricia said...

PS: always wonder what guitar you have.. also the blue one you had before.

Ans : He uses an Ibanez AT300.

Kenny you got the chords for this song? You think its suitable for for Youth service worship in sg?

Kondwani said...

The lead part sounds hype actually, can you please post the lead tabs for that part where u were covering the mistakes....