Yahweh

Here's Yahweh by Hillsong, one of the nicest songs in their album :) I tried to improvise abit at the end too, for some variety. Some improvisation at the bottom of this post too, just 'doodling' around.



Interlude (before the 2nd verse)
------------------------------------
------------------------------11----
-11h13-13--11h13-13--11h13-13-------
------------------------------------

------------------------------------
------------------------------------
------------------------------------
Swap the last note for a '12' 2nd time round.


Intro/Verse
To play the intro, use the first two notes only:
------------------------------------------------------
-----------------rpt----------------------------------
-4-(x12)-3-(x4)--thrice, then---4-(x16)---------------
------------------------------------------------------
------------------------------------------------------
------------------------------------------------------

------------------------------------------------------
-----------------rpt----------------------------------
-4-(x12)-3-(x4)--twice, then----4-(x16)---------------
------------------------------------------------------
------------------------------------------------------
------------------------------------------------------

Instrumental
---------------------------------
-9---12----11----16--12---11-----
---------------------------------
-6----9-----8----13---9----8-----
---------------------------------
---------------------------------




8 comments:

Geoff said...

nice improv solo at the end are you going to tab that out?

robert said...

you are awesome i wish with time i can play like you but i have something to ask of you see i don't know how octaves work or how they are strummed can you please show me how like would you be kind enough to put a post about that thank you and god bless you!!!!!

robert said...

sorry for this
---------------------------------
-9---12----11----16--12---11-----
---------------------------------
-6----9-----8----13---9----8-----
---------------------------------
---------------------------------
how do you strum -9-with out touching
the g string ---
-6-

Emmanuel said...

what key is the song in?

Emmanuel said...

kenny, great improv by the way
as usual haha

r0cs said...

Hey Great Tab! Really brings out the mood... Hope you can tab it out!
God Bless

iwishilearned said...

i think you can mute it robert=)

G Clark said...

@robert - You have to mute the G string with one of the fingers you're not fretting with. I usually wind up muting w/ both my middle and ring finger when playing octave lines like this.