It's Your Love

By Eman

From the new Hillsong album... The message in this song is indeed powerful, based on John 3:16... God Bless!

p.s. sorry for the poor sound quality of my guitar, having some recording trouble with my computer..



Intro:
------------------------------------
---7---7---7---7-----9---9---9---9--
--4---4---4---4---4s6---6---6---6--- (3x)
------------------------------------
------------------------------------
------------------------------------

-----------------------------------
--7---7---7---7-----9---9---9---6--
-4---4---4---4---4s6---6---6---6---
-----------------------------------
-----------------------------------
-----------------------------------

Verse:
------------------------
----7---5-----7-7----4--
-4-----4---4s6-6-6--4---
------------------------
------------------------
------------------------

-----------6--6--
---4--5-----7----
-4---4--4s6--6---
-----------------
-----------------
-----------------

---------------------------------7--
----7---5-----7-7----4----5----7----
-4-----4---4s6-6-6--4----4--4s6-6---
------------------------------------
------------------------------------
------------------------------------
back to intro

Chorus:
Inversion of the B chord:
---7---7---
--7-7---7--
-4----4----
-----------
-----------
-----------
Repeat several times


Bridge:
Use this for the first part:
-------------------11---
----12----12---11----9--
--9---9s11---11--------- (12X)
------------------------
------------------------
------------------------

Strum strongly after this:
--12-----------------------
--12-----12-----11-----14--
--9------11-----11-----13--
---------------------------
---------------------------
---------------------------
p.s. this part is a lil bit out of sync XD..

Use a lot of delay and a minimal amount of overdrive... I used both pickups for the intro, verse, chorus, and the bridge pickup for the bridge.
pick up....

9 comments:

aLLEn said...

it's really nice.... thanks very much...

g4ss13 said...

The second part of the intro doesn't sound right. Could it be 6-7 instead of 6-9?

Nick Kundert said...
This comment has been removed by the author.
Kundert said...

It is a 9 on the e-string. Try it instead.

Tim said...

Could you up the volume of your guitar a bit so it cuts through over the recording. It just gets lost in the mix a bit and hard to hear your part. But sweet playing. I love this sight. Its brillent.
Griffo

jhaypril said...

uhmmm.. can you give me the chords of the whole song?? please help me cause i need it very soon. i'm a guitarist in our church and i just started a few months ago. please help me.

zayrocs said...

its deffinetly 6-9 6 on the G string and 9 on the B

tangentman said...
This comment has been removed by the author.
tangentman said...

--------------------9--9--9--9----
--7---7---7---7----7--7--7--7------
-4---4---4---4---------------------
-----------------------------------
-----------------------------------
-----------------------------------

--------------------9--9--9--9--6-
--7---7---7---7----7--7--7--7-----
-4---4---4---4---------------------
-----------------------------------
-----------------------------------
-----------------------------------

Some of the concert shots show it with a Capo 4 which may be easier to play the rest of the song

-----------------------------------
--7--7--7--7----14--14--14--14-----
-----------------------------------
-9--9--9--9----16--16--16--16------
-----------------------------------
-----------------------------------