I Receive

Here's the instrumental to I Receive by Hillsong London. LOADS of alternate picking, but you can instead put a tad more distortion and just pick the main beats.



Alternate pick quickly.. its 8 notes per beat.
-----------------------------------------
-12--14--11---9--7---6-------------------
-----------------------------------------
-----------------------------------------
-----------------------------------------
-----------------------------------------

-----------------------------------------
-12--14--11---9--7---9-------------------
-----------------------------------------
-----------------------------------------
-----------------------------------------
-----------------------------------------

-----------------------------------------
-12--14--11---9--7---6-------------------
-----------------------------------------
-----------------------------------------
-----------------------------------------
-----------------------------------------

-----------------------------------------
-12-14--16--18--19-----------------------
-----------------------------------------
-----------------------------------------
-----------------------------------------
-----------------------------------------


1 comment:

shen said...

bro, how about the intro? i'm having problems with the intro...