You Are Good

By Emanuel
Here's a song by Planetshakers, from their new album deeper. Use drop-D tuning here. Hope you like it, God Bless!



Intro
Repeat the riff for the verse, with palm mutes.
--------------------------------------------
--------------------------------------------
--------------------------------------------
--------------------------------------------
-------------3--5--x--x--5----------3--5--3-
-0--0--3--5----------------0--3--5----------


--------------------------------------------
--------------------------------------------
--------------------------------------------
--------------------------------------------
-------------3--5--x--x--5----------3-x-x-3-
-0--0--3--5----------------0--3--5----------

Pre-chorus: use these power chords with palm mutes:
D C F G
|---||---||---||---|
|---||---||---||---|
|-7-||-5-||-10||-12|
|-7-||-5-||-10||-12|
|-5-||-3-||-8-||-10|
|---||---||---||---|

Chorus:

|---||---||---||---|
|---||---||---||---|
|-7-||-5-||-4-||-12|
|-7-||-5-||-5-||-12|
|-5-||-3-||-2-||-10|
|---||---||---||---|

|---||---||---||---|
|---||---||---||---|
|-7-||-5-||---||---|
|-7-||-5-||-3-||-5-|
|-5-||-3-||-3-||-5-|
|---||---||-3-||-5-|


Instrumental: its not difficult, and you can vary it by adding more fills. Use some delay as well.

------------------------------------
-----------s8-8-6---8-6-8-8b10------
-s7-7--5-7--------7-----------------
------------------------------------
------------------------------------
------------------------------------

------------------------------------
-13b15------------------------------
-------12b13b12p10--12-10------10---
------------------12------12-12-----
------------------------------------
------------------------------------

For this part add a SC(stereo chorus)or just anormal chorus
---13--12b13b12---------------------
-13--13--------13-13b15-------------
------------------------------------
------------------------------------
------------------------------------
------------------------------------


Bridge:
With palm mutes
--------------------------
--------------------------
-------------------------- 2X
--------------------------
-5--5--3--3--2--2-3-------
-------------------3-4-5--

|---||---||---||---|
|---||---||---||---|
|-7-||-5-||-4-||-5-| 2X
|-7-||-5-||-4-||-5-|
|-5-||-3-||-2-||-3-|
|---||---||---||---|

Strum harder here.
|---||---||---||---|
|---||---||---||---|
|-7-||-5-||-4-||-5-|
|-7-||-5-||-5-||-5-|
|-5-||-3-||-2-||-3-|
|---||---||---||---|

11 comments:

Romka said...

sweet song .. thanks dude

Dilpil said...

man awesome tab

I wouldnt mind seeing someone do some improv solo over this song ay, its asking for a bit of shreading.

Jam said...

yea^

hey what type of distortion are you using?

m78w said...

Cool tune, haven't heard it before but it's definitely worth learning!

MW

ZepedaJean said...

thats a nice song u think u can email it to me??? here if u can .. Zepedajean@yahoo.com


GOD BLESS YOU

mother said...

very, very nice distortion you got there. (:

Lindsay said...
This comment has been removed by the author.
Lindsay said...

Hi there.
Thanks for this. I was working it out and looking for some confirmation - it helped.

I'd like to suggest an alternative for the instrumental.
In some places it's just a different place to play (stays in D pentatonic minor shape at 10th fret), in others it's different notes that I hear. I haven't tried hard to notate the rhythm accurately here.
(I tried a couple of html tags to make the TAB display properly, but it won't allow them.)

------------------------------------------------
---------------------12--10------12-10----12b14-
--12--10----10-12-----------12---------12-------
---------12-------------------------------------
------------------------------------------------
------------------------------------------------

(same as yours)
------------------------------------
-13b15------------------------------
-------12b13b12p10--12-10------10---
------------------12------12-12-----
------------------------------------
------------------------------------

(different)
---13--12b13b12-10-10---------------
-10--10-----------------------------
------------------------------------
------------------------------------
------------------------------------
------------------------------------

Also, in the chorus, I hear the fourth chord as a C (back up a fret), not up to a G.

In the bridge, there's a neat part up high that is _something_ like

-10-8-8-10----8-8-10----8-8-8-10-
-----8---------8-------8-8-8-----

Thanks. Keep it up.

Sara DB said...

HI
this tab its great!

Can you take tab to bass!?

Or where I can find?!

John said...

I would recommend to put the video towards the guitar more instead of the whole person.. its pretty hard to see moreover to catch..

dejesusross said...

Praise God for the talent He Gave you. Bro i just want to ask if you still have that patch for Zoom g2.1u? God Bless you more. Nice Cover. Keep playing for his Glory. God Bless you more Bro.