No Reason To Hide

By Andres


Intro:

G|---------------------|
D|--------------
-------|
A|---------------------|
E|-16s4--------4-------|

^^Each 4 bars^^


Verse 1:

G|--------6--------------------------|
D|-----------------3-----------------|
A|----------------------------4--s16-|
E|-4---------------------------------|

^^ let ring ^^


Verse 2:

x2 x2 ↓ x2 ↓

G|-------666-555|------666-555|------666-555|
D|--------------|-------------|333333-------|
A|--------------|444444-------|-------------|
E|-444444-------|-------------|-------------|

^^ fast 16th notes like Salvation is Here solo ^^


G|-------666-555-----|
D|-------------------|
A|444444----------44-|
E|-------------------|


Chorus:

G|--------------------------------------------|
D|--------------------------------------------|
A|--------------------------------------------|
E|-4444-4444-4444-4444-66-9999-9999-9999-9999-|


G|-------------------------------------------------------|
D|----3-33-----6-66--------------------------------------|
A|-----------------4444-4444-4444-4444-------------------|
E|-111------444-----------------------4444-4444-4444-4444|


Then Verse 2


Verse 3:

G|-------------------666-555------------------666-555-|
D|----------------------------------------------------|
A|--------------------------444444444444444444--------|
E|-444444444444444444---------------------------------|

^^ again fast 16th notes like Salvation is Here solo ^^


G|-------------------666-555------------|
D|-333333333333333333-------------------|
A|--------------------------444444444-4-|
E|--------------------------------------|

Then Chorus twice


Last Part of Chorus, Bridge, and ending:

Ab|Gb|Bb|Db

6 comments:

bass4christ said...

wow awesome man, did you use two fingers or 3? nice HQ video too :D

andrés4jesus said...

thanks!!!!!!
I used 2 fingers
God Bless!!!!

RiotHIro said...

Hey i was wondering wouldn't it played a step down for the CD version?

clay_da_aussie said...

Dude!! You are the Man I've been searching and searching for this song in Tab format. Great Vid. Great finger work too!. Thanks and God Bless

ohSEXY said...

finally a cover where i could hear the bass well

Hanz said...

Hey, andres4jesus. I need some help. I'm a fairly new bass player and I have to play this song this friday. And was wondering how you timed on the six 4s on verse 2. Like do you walk 3 each or all 6 at once?