Nigel's variation of What the World Will Never Take

Jerome recently posted clips of Nigel's variations of Hillsong guitar solos. Really refreshing stuff, do have a look! Gave What the World a spin, and here it is; Nigel's version first, followed by my attempt at it, and lastly a slow-mo of the solo.



Tabs
The usual riff first..
--------------------------------------------------
-------10----10----10-----------10-12-12b14r12-10-
-11-11----11----11----11--10-10-------------------
--------------------------------------------------
--------------------------------------------------
--------------------------------------------------

The second half of this line uses a common blues riff.. good to keep as part of your toolkit.
--------------------------------------------
----------------------9--7------------------
-----6-----6----------9--7h8----------------
-7-7---7-7---7----9-9-9--7----9p7-----------
---------------9------------------9p7-------
--------------------------------------9s10--

-------------------------------------
----10----10h12p10-12b14r12--10------
-11----11------------------------10--
-------------------------------------
-------------------------------------
-------------------------------------

Another common blues lick in the first half of this line.
-------9-10-11-12------------------
-12b14------------12b14r12p10--12--
-----------------------------------
-----------------------------------
-----------------------------------
-----------------------------------

Tap! Only pluck the first note, and tap the other three. Follow on for each triplet.
--------------------------------------------------
-0-10-12--0-10-12--0-9-12--0-7-12--0-9-12--0-7-12-
--------------------------------------------------
--------------------------------------------------
--------------------------------------------------
--------------------------------------------------

--------------------------------------------------------
-0-5-12--0-7-12--0-5-12--0-4-12--0-5-12--0-4-12--0-5-12-
--------------------------------------------------------
--------------------------------------------------------
--------------------------------------------------------
--------------------------------------------------------

I'm sure there's some pick-tapping going on here, but I just can't figure it out.
--------------------------
-10p9p7-10p9p7-10p9p7-10--
--------------------------
--------------------------
--------------------------
--------------------------

To end, start with the first note, and rapidly alternate pick to the last note:
---------------
-12......-22---
---------------
---------------
---------------
---------------

5 comments:

Chr1stian08 said...

Dude, AWSOMENESSSSSSS:-)

Jam said...

amazing must learn. . .

Emmanuel said...

that's absolutely nuts

shHh! said...

cool^^

Dustin Pratt said...

Second line, last note: the 9 slides up to an 11 in the video, not 10 :)