From the Inside Out Improvisation

By Jerome

Here's my improvised solo of From The Inside Out by Hillsong. After a month of mastering the major scale I decided to create my own solo of some songs... Hope You like it!




Instrumental:
-----------------------------
-----8----------s15-13-12----
-s7-9-9---7-7-9--------------
-----------------------------
-----------------------------
-----------------------------

-----------------------------
-8s6-6s5-5s3-----------------
------------5s7s4-4b5r4b5r4s5-
-----------------------------
-----------------------------
-----------------------------

---------------12------------
------8------13--13-15-13----
-5s7-9---9s14----------------
-----------------------------
-----------------------------
-----------------------------

-----------------------------
----------13s15-15-13--13----
-12--12h14-----------14------
-----------------------------
-----------------------------
-----------------------------

--------------------------15-
-15b16r15-13-13---13-14b16---
----------------14-----------
-----------------------------
-----------------------------
-----------------------------

----15---15---15----12-12-16b18-
-b16--b16--b16--b16-------------
--------------------------------
--------------------------------
--------------------------------
--------------------------------

6 comments:

Amos said...

WOW THAT WAS AWESOME!! how long have you been playing guitar??

Mike said...

Oh GREAT job!!! What effects and amp are you using? Sounds awesome.

Guitar_man32@yahoo.it said...

I've been playing for 3 years so far...

I think i u used a Class 30 Amp in my POD.

-Jerome

Romka said...

removed due to terms of use violation?

Joe said...

Great job Jerome! Gave me the chills!

genesis_riffer said...

wow it very nice