Take Over

Here's Take Over, by the Parachute Band, from their album "Technicolor". Mostly United-ish dotted 8th notes here.



Played a little with my trem also - useful when you're holding on to a chord.

Tabs

Intro
Dotted 8th note delay, play each note several times.
----15-10-12------7-s13-12---

-13----------(x3)------------
-----------------------------
-----------------------------
-----------------------------
-----------------------------

----15-10-12-------13---
-13----------(x3)--13---
------------------------
------------------------
------------------------
------------------------

Pre-Chorus
I pulled the trem bar down at the end of each chord.
----------12-------------10------------8---
----13-------------13------------10--------
-14----14-------14----14------10----10-----
-------------------------------------------
-------------------------------------------
-------------------------------------------

Play a Dm chord, then go to the chorus.

Chorus
Here, you can either pluck open chords, or strum power chords for added ommph.

C C Am F


Instrumental
Dotted 8th note delay, play each note several times.
-20-17-------20-17-------------------------
-------20-17-------20-17----17----18-------
-------------------------17----17-17-------
-------------------------------------------
-------------------------------------------
-------------------------------------------

End with a Dm chord.

2 comments:

Ben said...

This is cover by the Parachute Band. Song is by a worship band from Brisbane called Magnify.

Stewart said...

Magnify are originally from Wellington, NZ. and often the Parachute Band/Magnify play together on the main stage at Parachute Music Festival. No surprises there that they share songs a little.

Great songs regardless