Beautiful the Blood

Here's Beautiful the Blood by Fee. Notice something new? :)



As usual, Fee plays with their guitars tuned down half a step. I've changed the pitch of the recording so I don't have to retune my guitar. To play with the cd, play everything one fret lower.

Tabs

Intro/Verse
---------------------------
---------------------------
-9s11-7--7s9--7--7s11--11--
---------------------------
---------------------------
---------------------------

---------------------------
---------------------------
-9s11-7--7s9--7--7--7------
---------------------------
---------------------------
---------------------------

Verse
Dotted 8th note delay, with palm mutes.
--------------------------------------------

-15------15------15------15------15---------
---14-14---14-14---14-14---14-14----14-14---
--------------------------------------------
--------------------------------------------
--------------------------------------------

Prechorus
-------17--------17---------14------
----15--------15------14-------15---
-14--------16------------14---------
------------------------------------
------------------------------------
------------------------------------

Repeat, but skip the last four notes and strum an A with distortion just before the chorus.

Chorus
Strum each note several times
--------------------------------------------
--------------------------------------------
-7---9s11--9-9-7---7---11s12--11--6-6--7----
--------------------------------------------
-5---7s9---7-7-5---5----9s10---9--4-4--5----
--------------------------------------------

11 comments:

Ira James said...

new guitar!

Jam said...

Kenny what type of axe do you got there? Looks sick. . .

clarence said...

hahaaa, is that an ibanez SA?

Joshua said...

Kenny OMGGGG AT300!!!!!!! Did my comment on facebook help? =p Now all you need is a Mesa Boogie Lonestar and a BB Preamp...xD hahah!Great job Kenny, you deserve it for all the people you've helped out with this blog!:D

kenny said...

Its an Ibanez AT300...

Joshua: yeah but right now i'll just have to do with my pod :)

Chris said...

man, you love your ibanez huh :P

Brent, the one and only, unless your name is Brent said...

For Feel of Fretboard and that pitchy strat tone; you can't go wrong with an Ibanez.

Jam said...

SICK!!!!!!

Chris said...

Wow... i looked that guitar up on google and that guitar is Sick and doesn't look cheap. i got a new guitar a couple days ago too but it doesn't compare to what you have. Have you ever considered a Gibson?

jethrojesse said...

awesome guitar man and thanks for what you do. i had a request of maybe putting the bpms next to the songs so we,( really I), could get a better feel for the timing on some of the songs.

Murry said...

Um In the video your playing differently than what you put down?
Please correct me if I am wrong but aren't you starting off playing this:

----------------------------------
----------------------------------
--11s7-9----7s11-11---------------
----------------------------------
----------------------------------
----------------------------------

----------------------------------
----------------------------------
--11s7-9----7-7-7-----------------
----------------------------------
----------------------------------
----------------------------------