Never Let Me Go

By John Rock

I was just learning Never Let Me Go and found that there were a few parts missing and a few minor errors. Also i don't really like playing up and down the same string, so i retabbed out a bunch of what Jerome had for his version. Here's what i got. It's my first post. Hope you guys like it.



Tabs
Intro:
Play these as harmonics a bunch of times each.

-5-7---12-5-7----------------------
-----7--------7--------------------
-----------------------------------
-----------------------------------
-----------------------------------
-----------------------------------

-----------------------------------
-12-12-10-10-----------------------
-------------12-------------------- x3
-----------------------------------
-----------------------------------
-----------------------------------

-----------------------------------
-12-12-10-10-----------------------
-------------12p11h12--------------
-----------------------------------
-----------------------------------
-----------------------------------

-----------------------------------
-12-12-10-10-----------------------
-------------12--------------------
-----------------------------------
-----------------------------------
-----------------------------------

-----------------------------------
-12-12-10-10-----------------------
-------------12p11h12--------------
-----------------------------------
-----------------------------------
-----------------------------------

-----------------------------------
-12-12-10-10-----------------------
-------------12-------------------- x2
-----------------------------------
-----------------------------------


Verse 1:
-------------------10--------------
-12-12-12-12-12-12----13-12--------
-----------------------------------
-----------------------------------
-----------------------------------
-----------------------------------

-------------------10--------------
-12-12-12-12-12-12----12-13--------
-----------------------------------
-----------------------------------
-----------------------------------
-----------------------------------

----------10-10-10-10--------------
-13-13-13--------------------------
-----------------------------------
-----------------------------------
-----------------------------------
-----------------------------------

Pre Verse:
-----------------------------------
-12-12-10-10-----------------------
-------------12--------------------
-----------------------------------
-----------------------------------
-----------------------------------

-----------------------------------
-12-12-10-10-----------------------
-------------12p11h12--------------
-----------------------------------
-----------------------------------
-----------------------------------

Verse 2:
-------------------10--------------
-12-12-12-12-12-12----13-12--------
-----------------------------------
-----------------------------------
-----------------------------------
-----------------------------------

-------------------10--------------
-12-12-12-12-12-12----12-13--------
-----------------------------------
-----------------------------------
-----------------------------------
-----------------------------------

----------10-10-10-10--------------
-13-13-13--------------------------
-----------------------------------
-----------------------------------
-----------------------------------
-----------------------------------


-----------------------------------
-12-12-10-10-----------------------
-------------12--------------------
-----------------------------------
-----------------------------------
-----------------------------------

Pre Chorus:
-----------------------------------
-12-12-10-10-----------------------
-------------12p11h12--------------
-----------------------------------
-----------------------------------
-----------------------------------

-----------------------------------
-12-12-10-10-----------------------
-------------12--------------------
-----------------------------------
-----------------------------------
-----------------------------------

Chorus:
-----------------------------------
-8s10-10h12--12--------------------
----------------------------------- x7
-----------------------------------
-----------------------------------
-----------------------------------


Pre Verse:
-----------------------------------
-12-12-10-10-----------------------
-------------12-------------------- x3
-----------------------------------
-----------------------------------
-----------------------------------

-----------------------------------
-12-12-10-10-----------------------
-------------12p11h12--------------
-----------------------------------
-----------------------------------
-----------------------------------

Verse 3:
-------------------10--------------
-12-12-12-12-12-12----13-12--------
-----------------------------------
-----------------------------------
-----------------------------------
-----------------------------------

-------------------10--------------
-12-12-12-12-12-12----12-13--------
-----------------------------------
-----------------------------------
-----------------------------------
-----------------------------------

----------10-10-10-10--------------
-13-13-13--------------------------
-----------------------------------
-----------------------------------
-----------------------------------
-----------------------------------

Pre Chorus:
-----------------------------------
-12-12-10-10-----------------------
-------------12-------------------- x2
-----------------------------------
-----------------------------------
-----------------------------------

Chorus:
-----------------------------------
-8s10-10h12--12--------------------
----------------------------------- x7
-----------------------------------
-----------------------------------
-----------------------------------

-----------------------------------
-8s10-10h12--13---8s10-10h12--12---
----------------------------------- x3
-----------------------------------
-----------------------------------
-----------------------------------

-----------------------------------
-8s10-10h12--13--------------------
-----------------------------------
-----------------------------------
-----------------------------------
-----------------------------------


Bridge:
----------------2----
------3-5-----3------
--4-5-----4-5--------
---------------------
---------------------
---------------------

----------------2h3-5--3p-2-
------3-5-----3-------------
--4-5-----4-5---------------
----------------------------
----------------------------
----------------------------

----------------2----
------3-5-----3------
--4-5-----4-5--------
---------------------
---------------------
---------------------

----------------2----
------3-5-----3------
--4-5-----4-5--------
---------------------
---------------------
---------------------

Instrumental:
Repeat each note 8x, and slowly bend 16
For the last time, play and hold 14 and 16.

---------------------
---------------------
--12-11-14-16b17-----
---------------------
---------------------
---------------------




Intro:
-----------------------------------
-12-12-10-10-----------------------
-xx-xx-xx-xx-12-------------------- x3
-12-12-12-12-12--------------------
-----------------------------------
-----------------------------------

-----------------------------------
-12-12-10-10-----------------------
-xx-xx-xx-xx-12p11h12--------------
-12-12-12-12-12--------------------
-----------------------------------
-----------------------------------

-----------------------------------
-12-12-10-10-----------------------
-xx-xx-xx-xx-12--------------------
-12-12-12-12-12--------------------
-----------------------------------
-----------------------------------

-----------------------------------
-12-12-10-10-----------------------
-xx-xx-xx-xx-12p11h12--------------
-12-12-12-12-12--------------------
-----------------------------------
-----------------------------------

-----------------------------------
-12-12-10-10-----------------------
-xx-xx-xx-xx-12-------------------- x2
-12-12-12-12-12--------------------
-----------------------------------
-----------------------------------


Verse 4:
-------------------10--------------
-12-12-12-12-12-12----13-12--------
-----------------------------------
-----------------------------------
-----------------------------------
-----------------------------------

-------------------10--------------
-12-12-12-12-12-12----12-13--------
-----------------------------------
-----------------------------------
-----------------------------------
-----------------------------------

---------------------------------------------
-13-13-12-13-10-10-10-----------------10--12-
----------------------12-11-9--11--12--------
---------------------------------------------
---------------------------------------------
---------------------------------------------

1 comment:

Michael Keating said...

What effect pedals