Learning to Fall

Here's Learning to Fall, a 'radio-friendly' song by This Beautiful Republic.



Tabs
Verse
---------------------------------------------
---------------------------------------------
---------------------------------------------
-6s8s6---------6s8s6-----------6s8s6---------
-------6-6s9---------6-6s9-2---------6-6s9---
---------------------------------------------

--------
--------
--------
-6--9---
--------
--------

Pre-Chorus
------------------------------------
------------------------------------
-6-4-3------6-4--8-8-8-8-6-6-6-6----
--------3---------------------------
------------------------------------
------------------------------------

Chorus
Play these chords:
B F# G#m E
B F# G#m-F# E

Instrumental
-2---2---2---2h4p2-------------0----
---4---4---4-------4---4---4--------
---------------------4---4---4---4--
------------------------------------
------------------------------------
------------------------------------

-2---2---2---2h4p2---
---4---4---4---------
-------------------4-
---------------------
---------------------
---------------------

1 comment:

rayo7nator said...

Thanks for the post! Could you please tell me the chords for the intro and also the part saying "take me as an offering i surrender everything, no more living with out you."

Thanks