Last Second Chance

Here's Second Last Chance by This Beautiful Republic... made loads of mistakes though, as i ran through the song quickly...



Btw, I'm using my new Pod X3 :D


Tabs
Verse
Rhythm guitar plays:
-----------

-----------
-----------
-----------
-------3---
-0--3------

Lead plays:
-------------------
-------------------
-------------------
-5-4---------------
-----5---7-5---5---
-------7-----7-----

Then play the lower E string a few times, before going into the chorus:


Chorus
Play Em first, followed by
------

------
------
------
------
-7p5--

G Am

While another guitar plays
------------------
-8-7--------------
-----7---9-7---7--
-------9-----9----
------------------
------------------

Bridge (intro)
------------
------------
-7--9--12---
------------ x2
-5--7--10---
------------

----------------------------
----------------------------
-14--16--12----14--16--16---
----------------------------
-12--14--10----12--14--14---
----------------------------
I made a mistake in for the last note, my bad..

3 comments:

Neil Rey Gallano said...

How's your new PodX3, hope your having loads of fun!

Clarence said...

The bottom does sound a little weak, well my suggestion, If you want a really more heavy bottom end kind of sound but don't want the "Flab" of the bass (which is one disadvantage of the POD - i am using a POD too) try getting an analog tubescreamer and put it in front of your POD. On the "Stomp" Section of your POD, turn on the "screamer" stomp. Drop the stomp drive to 0, gain about to 40 - 50% tone as preferred. Turn on your analog TS, and set it heavier as preferred.

CiZaR said...

hi !!
kenny can yu tabbing the song of my God?
i love this song!!
thanks!!