Stronger (the 'droft knows best)

Tabbed by Joshua



Intro
(Dotted 8th note delay)

-12--12--13--12--12--10----
---13--13--13--13--13--13--
---------------------------
--------------------------- (x2)
---------------------------
---------------------------

-12-
----
----
----
----


Verse 2

-----------------------------
-6--8-5--------6--8-5--6--8--
-5--7-5-(x2)---5--7-5--5--7--
-7--9-5--------7--9-7--7--9--
-----------------------------
-----------------------------

--8--
--8--
--5--
-----
-----
-----

Bridge
(Look at the video to see when and how to play)
--------------------
--------------------
-3-s9-10-12---------
--------------------
-1-s7-8--10---------
--------------------

--------------------
-13-15-12-13-15-17--
--------------------
-10-12-9--10-12-14--
--------------------
--------------------

-15--15-15-15-15----
-13--12-13-12-13----
-12--12-12-12-12----
--------------------
--------------------
--------------------

So let your name..

--------
-8---8--
-5---7--
-5---5--
--------
--------


-8--s15--12-s15--10-s15--7--
----------------------------
-5--s12--9--s12--7--s12--4-- (x2)
----------------------------
----------------------------
----------------------------

--8--
--8--
--5--
-----
-----
-----

7 comments:

guitar_pic said...

Do you turn the delay off at the instrumental and at the build-up during the bridge.

Esteban said...

Can anybody tell me what brand is this beautifull guitar?

david said...

the guitar hes using is a duesenberg, but i dont know what kind

Sunshine said...

Starplayer TV.....

CARLOS AU said...

Hi There! Can anybody tell me what type of effects used?... Please!

Leslie Lim said...

Wonderful put up, very informative. You must continue your writing. I’m confident, you’ve a great readers’ base already!

Jin
www.imarksweb.org

Silvia Jacinto said...

I really love your blog there's a lot to share. Keep it up.Visit my site too.

n8fan.net

www.n8fan.net