Say Goodnight

Here's a song from an album i chanced across, by a band called This Beautiful Republic, whose 'Perceptions' is very likely to be my favourite album of the year. Thanks to theGlow for specially importing it for me.

The entire album is played with the guitars tuned half a step (1 fret) down; I've upped the song a key in the video to avoid tuning my guitar.



There were some parts where the timing didn't sync - somehow the song jumped when i ran both the webcam and the audio program at the same time...

Tabs

Verse
-----5------------------
--------keep repeating--
-6h7--------------------
------------------------
------------------------
------------------------

Pre-chorus
-------------------------------------------------
-------------------------------------------------
-------------2-2-2-4-4-4-------------2-2-2-------
-4-4-4-4-4-4-------------4-4-4-4-4-4-------2-2-2-
-------------------------------------------------
-------------------------------------------------

Chorus
My favourite part...
------10----12-10------9----10-9---

---10----10---------10---10--------
-11----------------9---------------
-----------------------------------
-----------------------------------
-----------------------------------

-------10----12-10--------14----15-14--
----10----10-----------15----15--------
-12-----------------14-----------------
---------------------------------------
---------------------------------------
---------------------------------------

Bridge
Play each note a few times
------------------------------------------------
-----
-----------------------------------------------------
-4-6-9-2-12-11---11-12-14-11-12-14-11-12-14-11-12-14-
-----------------------------------------------------
-----------------------------------------------------
-----------------------------------------------------

An octave up
------------15-14---14-15-17-14-15-17-14-15-17-14-15-17-
12-14-17-10---------------------------------------------
--------------------------------------------------------
--------------------------------------------------------
--------------------------------------------------------
--------------------------------------------------------

End with
-----
-15--
-----
-----
-----
-----

1 comment:

Kenny said...

hey kenny, sounds great! i was wondering how you upped the tuning of the song?

~Kenny