Let Creation Sing (Reuben Morgan)

Here's a very refreshing mix of Let Creation Sing, by Reuben Morgan. I quite like what the guitar does in the chorus - will try to transplant it into another song in a future post.



Tabs
Intro
---6p5---------6p5-------
-6-----6-----6-----6-8---
---------7---------------
-------------------------
-------------------------
-------------------------

Verse
----------------------------------
-6-6-5-5-7-7-5-5-6-6-5-5-7-7-5-5--
----------------------------------
----------------------------------
----------------------------------
----------------------------------

-5-5------------------------------
-----6-5-7-7-5-5-6-6-5-5-7-7-5-5--
----------------------------------
----------------------------------
----------------------------------
----------------------------------

Prechorus
More of the same thing...
----------------------------------
-6-6-5-5-7-7-5-5-6-6-5-5-7-7-5-5--
----------------------------------
----------------------------------
----------------------------------
----------------------------------

Before entering the chorus
-------------------------------------

-6-6-5-5---------6-6-5-5-------------
---------7-7-5-5---------7-7-5-5-----
-------------------------------------
-------------------------------------
-------------------------------------

Chorus
Simple stuff.. keep repeating:
-13------13-------13-----
---13-------13-------13--
------10-------10--------
-------------------------
-------------------------
-------------------------

Instrumental
---------8-----------
-10p8h10-------------
------------10p9-----
-----------------10--
---------------------
---------------------

---------8------------
-10p8h10------8-------
----------------10-9--
----------------------
----------------------
----------------------

3 comments:

ilifespot said...

Hahaha, I got Reuben Morgan lost in the Mall of Louisiana.

Nathanus said...

Fantastic work mate, the 7's in the verse and prechorus should be on string 3 through.

guitar_pic said...

What cd is this version from?