Saviour

By Jerome

Here's the solo of the song, by New Life Worship.



Instrumental:
----------------------------------
----10-10-10--10s12-14-12-12s10---
-7s9------------------------------
----------------------------------
----------------------------------
----------------------------------

----------------------------------
-15-15-14-12-14--10---------------
-------------------9-11~--12-12---
----------------------------------
----------------------------------
----------------------------------

----------------------------------
-10-10--12-12b14-b14-12-10-9-5----
----------------------------------
----------------------------------
----------------------------------
----------------------------------

Followed by:
-10p9-10p9--9--9------------------
----------10-10-10----------------
------------------9-11-11~--------
----------------------------------
----------------------------------
----------------------------------


G1X Settings: solo

Comp/EFX. oF

Drive: dd
Gain: 24

EQ
Low: 17
Mid: 16
Hi: 14

ZNR/Amp: S2

Modulation: d3
rate: 39

Delay: off

Reverb: A6
decay: 10

4 comments:

Jam said...

Like the wallpaper!!

Yipee~It's Leah said...

Just happened across your site. Excellent! My son plays guitar and sings in the youth praise band at church. I can't wait to show him your site!
see him sing on my site...
www.exclusiverandomness.blogspot.com

Vin's said...

thanks.. for providing this... awesome thing.....
Learn and Master Guitar.

souledout55 said...

that was awful. make sure your guitar is in tune. The last run was way off. you are too slow