'droff knows best - Your Name High



Intro
Strum
---------------------
---------------------
-2--6--7--6--2--1----
-4--7--7--7--4--2----
---------------------
---------------------

-9---12--14--12--9--7----
-10--14--15--14--10-9----
-------------------------
-------------------------
-------------------------
-------------------------

Verse/Pre-chorus
-9-------------10--9---4--
---10-9b10r9-7-10--10--5--
--------------------------
--------------------------
--------------------------
--------------------------

before entering the chorus:
--5---
--3---
--2---
--0---
------
------

Chorus
A E F#m E
D F#m A D

Bridge
Strum
--------------------
--------------------
-11--13--14---13----
--------------------
-9---11--12---11----
--------------------

--------------------
--------------------
-11--13--14---16----
--------------------
-9---11--12---14----
--------------------

2 comments:

¤Seven 7 Days™¤ said...

Good video, these can also help us in the youth group; but can you put the tabs of the first and second guitars???, keep it up, and God Bless You!!

longge said...

Together with the glittering golden brass hardware, the replica handbag looks so glam. This summer I’m going to spend my days in New Orleans and this is my secret arms! The tassel dangling from the handle is in a shape as elegant as your bedside lamp. The cute big flap looks so sporty and sunny that your impulse is killing you.