Run

By Jerome

Here's an upcoming song by Hillsong, enjoy!




Intro: Use delay here
----------------------------
--(10)-(11)-(12)-(13)-(14)--
--(10)-(11)-(12)-(13)-(14)--
----------------------------
----------------------------
----------------------------
This sounds is quite cool huh?

Followed by:
----------------------------------
----------------------------------
-15-15-15-15-13-15-16-15-15-15-11-
----------------------------------
----------------------------------
----------------------------------

----------------------------------
----------------------------------
-11-13-13-10-15-15-15-15-13-15-16-
----------------------------------
----------------------------------
----------------------------------

----------------------------------
----------------------------------
-15-15-15-11-11-18-18-18-18-"15"--
----------------------------------
----------------------------------
----------------------------------
rpt 2x and end with "15"

Verse 1: 2nd guitar power chords


Pre-chorus: strum
------------------
-11--9---12-------
-11--11--11-------
------------------
------------------
------------------

Verse 2: running part(delay)
-------------
-------------
---11--------
-------------
-------------
-------------

Pre-chorus: same notes
(Low down your volume this time)

Chorus:
--------------------
----7-7-6-6---------
-6-6-------6-6------ 3x
--------------------
--------------------
--------------------

--------------------
--------------------
-8-8-8-10-10-10-6-6-
--------------------
--------------------
--------------------

--------------------
----7-7-6-6---------
-6-6-------6-6------ 3x
--------------------
--------------------
--------------------

--------------------
--------------------
-8-8-8-10-10-10-10s11-
--------------------
--------------------
--------------------

Instrumental:

Strum
--------------
-----11-------
-----11-------
--------------
--------------
--------------

Followed by: same as Intro
----------------------------------
----------------------------------
-15-15-15-15-13-15-16-15-15-15-11-
----------------------------------
----------------------------------
----------------------------------

----------------------------------
----------------------------------
-11-13-13-10-15-15-15-15-13-15-16-
----------------------------------
----------------------------------
----------------------------------

----------------------------------
----------------------------------
-15-15-15-11-11-18-18-18-18-20----
----------------------------------
----------------------------------
----------------------------------

Riff: delay and Palm muting
----------------------------------
----------------------------------
------11-11-10-10-----------------
-11-11-----------11-11-13-13-13--
----------------------------------
----------------------------------

-----------------------
-----------------------
-10-10----------------- rpt 9x
------13-11-11---------
-----------------------
-----------------------

End with
-----------------------
-----------------------
------11-11-10-10------ 3x
-11-11-----------11-11-
-----------------------
-----------------------

-----------
-----------
-----------
-13-13--11-
-----------
-----------

17 comments:

Anonymous said...

good job jerome :>

Anonymous said...

WOW great job man
ps nice guitar

Chrizza! said...

OH MY GOSH?!?!?!
WHERE DID YOU GET THIS JEROME???
can't wait till they release it. :)

nick said...

GREAT!!!wer did u get the song?
you download it?

yeaN WerN said...

jerome!!! where you get it? where did you download it? i want!! hahahaa (: seriously i want it... ehehhe... christiandl.com is down.. so sad. so i'm trying to find a new place to download christian songs. if you do please give the site to me. thanks. God bless

Bryant Wong said...

Guys, if you go on the Hillsong website, you can prebuy the cd, and it comes with the mp3 of "Run." Hillsong has all the samples too, and www.imeem.com/shineforyou has the song online

God Bless

Anonymous said...

wow..great job man

what kind of guitar are using

GOD bless you..

Anonymous said...

what delay time are you using
are you using the dd-5 by any chance
reverb?
distortion?
wah?

thanks
god bless!

Anonymous said...

hahaha! ! ! ! ! I was just surprised by the cool song!

Anonymous said...

dude, thank you so much!!!!!
God bless!
!!!!Jesus is insanely awesome!!!!!!

Anonymous said...

Jerome, please post the settings(G1X) of this song.. thanks..

Ryno said...

Hi people.

I'm pretty new to this style of playing, what is it called? I used to play barre chords style and would like to learn this style of playing!!! I'm loving it! GREAT job Jerome!

kEv said...

thanks jerome. just wondering. is this in F# key?

margareth said...

may i know what is the setting for the guitar effect? thanks

Keegan said...

there is a "'droff knows best" on youtube, which is better (no disrespect to this one, just droff kinda composed it...)

Joel said...

cool

ken2012 said...

Each new replica Louis Vuitton watches movement has to canyon all-encompassing standards. As for the accurately spy, James Bond and Casino Royale characteristic affection the Planet Ocean has the a lot of acclaimed abstruse agent’s amount on the added ancillary of the axial abnormal duke - the 007 followed by a gun.