What the World Would Never Take (2008) Variation

Here's a variation on the 2008 version of What the World Would Never Take, with really fast playing at the end, check it out!

By Omar




Instrumental:
-------------------------------------------|
------10-----10--10------10-12-12b13r12-10-|
-11-11--11-11--11---10-10------------------|
-------------------------------------------|
-------------------------------------------|
-------------------------------------------|

--------------------------|
--------------------------|
----6----6--6----8----8-8-|
-7-7--7-7--7-----x----x-x-|
-----------------6----6-6-|
--------------7-7--7-7-7--|

-------------------------------------------|
------10-----10--10------10-12-12b13r12-10-|
-11-11--11-11--11---10-10------------------|
-------------------------------------------|
-------------------------------------------|
-------------------------------------------|

-----------------14--------------------------------|
-12-12b14---s(17)17b19--17-16h17p16p14s13h14-------|
--------------------------------------------14-----|
-----------------------------------------------16~-|
---------------------------------------------------|
---------------------------------------------------|

--------------|
--------------|
-14-----------|
-----14s13----|
---16---------|
--------------|

Shred-Part

------------------------------------
------------------------------------
------------------------------------
-----------13h14p13--------------13-
--/12-14-16-------16-14-12-14-16----
------------------------------------

--------------------------|
--------------------------|
----13h14p13--------------|
14-16------16-14-13-14-16-|
--------------------------|
--------------------------|

----------------------------------
--------------------14h16---------
13h14p16p14p13p14p16-----16p14p16-
----------------------------------
----------------------------------
----------------------------------

---------------------14h16p14---14-16-|
14h16p17h16p14p16p17----------17------|
--------------------------------------|
--------------------------------------|
--------------------------------------|
--------------------------------------|


-16b17r16p14---14-16b17r16p14---14-16b17r16p14--14-14----|
------------17---------------17---------------17---17b19\|
---------------------------------------------------------|
---------------------------------------------------------|
---------------------------------------------------------|
---------------------------------------------------------|

11 comments:

Dilpil said...

HOLY COWPOO

Thats impressive!

Anonymous said...

wwwwwwhoaa!! thanks buddy will learn that like NOW! :P

ken-x said...

I think you should fix the font style on this post to the all time perfect for tabs "Courier New"

Omar said...

I did have this on "Courier New", but while I was emailing it,all the font email-thing had was "courier" font;

I thought kenny would have noticed and fixed it later xD..

oh well, But it would really be better if it were Courier New :)

kenny said...

I dun think blogger allows you to use courier new though.. they have a limited selection of fonts in their editor screen..

tmt7 said...

nice variaton omar!
keep rocking for God!

Anonymous said...

wat does r mean?repeat????

Anonymous said...

You know how b means bend? r is for release, so you're releasing your bend.
AWESOME DUDE!!!

Anonymous said...

my gosh this is so hard to play for me...,, Can you post a slower version of the shred part?i really want to learn this ^^ thanks very much..GOd bless you bro

Justin said...

hey plz post a slower video please i really want to learn this plz, share your talents to us

Praise the Lord said...

awesome man!! whoa, and i can barely play the original 2008 version =/