I Will Boast

By Vitt

Here's I Will Boast by Paul Baloche.



Intro
D D D A
--------------------------------------------
--------------------------------------------
-7-9-11-11s12-11--7-9-11-11s12-11-----------
-0-0-0--0-----0---0-0-0--0-----0------------
--------------------------------------------
--------------------------------------------

--------------------------------------------
--------------------------------------------
-7-9-11-11s12-11-11s12-11s7s9-9-9-9---------
-0-0-0--0-----0--0-----0--------------------
--------------------------------------------
--------------------------------------------

Verse
Palm mute these powerchords
D D Bm A x2
In the second verse it is D Bm A then D D/C# Bm A
D/C# = x476xx

Fills in the second verse
---0---------5------------------------------
--3-------3-2-------5-------3------3-2-3----
-2------------------------------------------
--------------------------------------------
--------------------------------------------
--------------------------------------------

Prechorus
G A
-3--5---
-3--2---
-0--2---
-0--2---
-x------
-3------

Chorus
D A Bm A (repeat as needed)
Em G

Solo
Bm D Em G
--------------------------------------------
--7-7-7-7--5-5-5-5--5-5-5-5--0-0-0-0--------
-9-9-9-9--7-7-7-7--7-7-7-7--2-2-2-2---------
--------------------------------------------
--------------------------------------------
--------------------------------------------

--------------------------------------------
--7-7-7-7--5-5-5-5--5-5-5-5--0-0-0-0-0------
-9-9-9-9--7-7-7-7--7-7-7-7--2-2-2-----------
--------------------------------------------
--------------------------------------------
--------------------------------------------

----5-5s7-5s10-12-9-10-12-12s14-14~---------
-2s3----------------------------------------
--------------------------------------------
--------------------------------------------
--------------------------------------------
--------------------------------------------

Bridge
D A Bm G
--0-----------------------------------------
-3-3------10-12-------10-12-----------------
----2----------11-9--------11-9-12-11-------
--------------------------------------------
--------------------------------------------
--------------------------------------------

6 comments:

Anonymous said...

dangg. i really like the tone of your guitar. very nice. how'd you get it like that?

Clo187 said...

what an awesome tab thanks lots for the amount of music you got and the detail god bless

guitar_pic said...

Whohoo! Everything is spot on! Vitt you are the man!

vitteh said...

Glad I could help!

As for my sound.....I use a podxt live. Using the ac15 model with drive a bit past halfway as well as a tubescreamer stomp with drive at 20% and tone about 45%.

ronprazn said...

what is your delay setting and which delay do you use .or could you upload it I use xtlive with custom lp

dfender510 said...

during the bridge you can also do something like the chorus part of "With Or Without You" by U2.. the notes are G D G D D G D F# (D D D G G G) note in () are on the open string...