I could sing of your love forever (Bass)

By Bass Levite

There are many versions of this song going around; some even with different chords. This version is by Sonic Flood.



I played some melodic stuff on top of the initial acoustic guitar intro, to give the reader some ideas on some ways the bass can play subtle notes without being too overpowering.

Intro:

Let the notes ring out.

----16----16----16----16-
-14----14----14----14----
-------------------------
-------------------------

----13----13----13----13-
-14----14----14----14----
-------------------------
-------------------------

Verse:

1. Notes are played only for half a bar and then allowed to ring out during the second half of a bar, so that the riff is not overpowering.

2. Arpeggio chord patterns or simply ascending or descending the scale can be used.

3. The root note is played first in most cases.

-------13-16-13-14-16-13-
-14-16-------------------
-------------------------
-------------------------

----13-14-16-------------
-16----------------13-16-
-------------14-16-------
-------------------------

Bass intro riff:

-------------------------
-------------------------
----------------14h16r14-
-12-12h14-14h16----------

-------------------
-16-14-16-14-16-14-
-------------------
-------------------

----------------------
----------13-14-------
-------16-------12-14-
-14h16----------------

-------------------------
-------------13-14-------
----14-15-16-------12-14-
-12----------------------

------------------------
-16-------16------------
----14h16----16---------
----------------14-12-0-

6 comments:

Jon said...

Awesome!!!You Rock Bass Levite!

bdepps said...

Some of the bass lessons come up private how do I view them>

Whatever everlaar said...

Yep ... how do i view private videos ??

Romka said...

what's with all the bass lessons being private now?

serm said...

Ya..why are all the bass lessons private =(

nhgh said...

Info minimalist living room design yang diberikan spec honda cbr 250 bagus sekali, semoga superbike kawasaki ninja menjadi berkah dan bermanfaat bagi kita semua home interior design