Salvation

By Kenny & Gabriel

Here's Salvation from Planetshaker's latest album, Free. Gabriel did a good job tabbing the notes out, and I did the video. Enjoy!




Verse
(not in video)
-------------

-------------
-------------
-------------
-2-----------
---4--2--0---
Repeat each note several times with palm mutes.

Chords: B G#m F# E

Pre-Chorus
(not in video)
Chords: C#m G#m E, C#m G#m F# (X2)

Chorus
Chorus: B E F# (x2)

2nd half - doesn't it sound like United's Solution?

---------------------11--
-11h12-12-(x4)-11h12-----
-------------------------
-------------------------
-------------------------
-------------------------

---------------------14--
-11h12-12-(x4)-11h12-----
-------------------------
-------------------------
-------------------------
-------------------------

Chords: G#m E B F#

Instrumental

Guitar 1 (repeat several times)
e---------------------------------
B---------------------------------
G---------------------------------
D---------------------------------
A------2-----2---2-2-2-2-4-2------
E--4-4---4-4---4------------------

e---------------------------------
B---------------------------------
G---------------------------------
D---------------------------------
A-----2-----2---4-4-4-4-6-4-2-----
E-0-0---0-0---0-------------------

I missed the last note in the video as i was switching to the 2nd guitar's part:

-----------------
-----------------
-13-----13-15-16- use lots of palm mutes
----(x7)--------- in between.
-11-----11-13-14-
-----------------
Again, I missed the last note in the video as i was switching to the next part.


When the singing enters, play the following with slight palm mutes:
------------------------------------------
-9-9-9------------------------------------
-------11-11-11-8-8--11-11-11-------------
-----------------------------11-11-11-9-9-
------------------------------------------
------------------------------------------

------------------------------------------
-9-9-9------------------------------------
-------11-11-11-8-8-----------------8-----
---------------------11-11-11-11-11--11-9-
------------------------------------------
------------------------------------------

4 comments:

Anonymous said...

hi kenny..that was great!oh by the way can i request for the guitar parts of Awesome in this Place?thanks!

-YeaNwerN- said...

hey kenny!! great job!!! i got the album as soon as it came out and managed to tab out the bridge. hahaha anyways... good job man! God bless!!!

Dilpil said...

Oh my gosh Kenny, thats what I call shreding in the name of God man, well done. Very nice tabs Gabriel.

I'm keenly awaiting the rest of the album. :D

Jon! said...

hey that was awesome! keep doing what you do and God bless you! thanks for all our help! oh and can you do a vid of saved the day by planetshakers? on the cd "free" thanks a lot!!!