Maker of Heaven

By Gabriel



Intro
e-----------------------
B-----------------------
G---4-4-11-11-9-9-8-8/4- (x2)
D-----------------------
A-----------------------
E-----------------------

e---------------------------------------------
B---------------------------------------------
G---4-4-11-11-9-9-8-8-8/13-13-13-15-15-16-16--
D---------------------------------------------
A---------------------------------------------
E---------------------------------------------

Finis the intro whit (G-8/13)

PreChorus
--------------------------------------------------
--11-11-11-11-12-12-12-12-14-14-14-14-14-14-14-14-
--------------------------------------------------
--------------------------------------------------
--------------------------------------------------
--------------------------------------------------

---------------------------------|-------------
-11-11-11-11-12-12-12-12-14-(x8)-|-14h16-------
---------------------------------|-------(X6)--
---------------------------------|-------------
---------------------------------|------------
---------------------------------|-------------

Chorus (Running Time 1:14)
e--16-16-16-14-16-16-16-12--
B---------------------------
G---------------------------
D---------------------------
A---------------------------
E---------------------------

-Intro Again-

Bridge (Hallellujah) (Running Time 4:38)
e-----------|-----------|-----------|----------------|
B-----------|-----------|-----------|----------------|
G-8--6--(x4)|-9-8--(x4)-|-8--6-(x4)-|--11-9-8----(x2)|
D-----------|-----------|-----------|---------9------|
A-----------|-----------|-----------|----------------|
E-----------|-----------|-----------|----------------|

4 comments:

Anonymous said...

Dude either your guitar is not tuned or you're just totally off key. Sorry man.

Alec Dixon said...

yeah, defiantly out of tune

Timmy B said...

hey do you know were i get the chords to this song ive been looking and i cant find any

zayrocs said...

Here's the chords for this song

http://www.ultimate-guitar.com/tabs/d/desperation_band/maker_of_heaven_crd.htm

I'm actually the one who posted this on UG