Counting on God

By Jerome

The song is no much guitar driven, there's more drum solo so here are the tabs of the song. The songs is in the key of B btw.



Intro: Strum each group of notes 4x
----------------------
----------------------
--8---9---8---11------
--9---9---9---11------ rpt 2x
----------------------
----------------------

Chorus: play the F# palm muting before to get to the chorus. (power Chords)

B E G#m F#
B E G#m *

*end the chorus playing this note
---------
---------
---------
---*8----
---------
---------

Strum the power chords

B(2x) E G#m(2x) F#
B(2x) E G#m(2x) F#

Pre-Verse/riff: with delay
--------------------------
--------------------------
-8-6-8-6--9-6-8-6-8-6------- rpt 2x
--9-9-9-9--9-9-9-9-9-9-8-----
--------------------------
--------------------------

3 comments:

Chris said...

Tippsy of Desperation Band's version of the intro part of "Counting On God"

check it out...

http://www.youtube.com/watch?v=3p92eAJd_h0

Regan said...

hey hate to brake it to ya but thats not really how it goes.

zayrocs said...

the intro is more like:
-----------------------------------
-----------------------------------
--8-8-8-8-9-9-9-9-8-8-8-8-6-6-6-6--
--9-9-9-9-9-9-9-9-9-9-9-9-8-8-8-8--
-----------------------------------
-----------------------------------
I believe they play this during the chorus too.

The pre-verse riff is like:
-----------------------------
-----------------------------
-9-6-8-6--9-6-8-6--9-6-8-6---
-9-9-9-9--9-9-9-9--9-9-9-9-8- 2X
-----------------------------
-----------------------------

And the bridge is like:
-----------------------------------
-----------------------------------
-8-8-8-8--9-9-9-9--8-8-8-8--6-6-6-6
9-9-9-9--9-9-9-9--9-9-9-9--8-8-8-8-
-----------------------------------
-----------------------------------
but use a soft effect on this part.