Because of You

Here's Because of You by Christ for the Nations Institute

By Vitt

Key: E



Intro:
---------------12----11---------------------
----7------------9--------------------------
--9--(x2)--9h11----11---11-8-9--4-4-6-6-2-2-
-9-9----------------------------4-4-6-6-2-2-
--------------------------------2-2-4-4-0-0-
--------------------------------------------
E E B C#m A

Verse:
Rhythm
---------------------------------------
---------------------------------------
----4-4--6-6--2-2-------4-4--6-6--2-2--
-2--4-4--6-6--2-2----2--4-4--6-6--2-2--
-2-------------------2-----------------
-0-------------------0-----------------
E B C#m A E B C#m A

------------------------------

------------------------------
-2----------------------------
-2--4-4--6-6--7-----------2---
-0--4-4--6-6--7-----------2---
----2-2--4-4--5-----------0---
A F#m G#m A E

Lead
--------------------------------
--------------------------------
-9---11--13-9-------9--11--13-9-
-9--9--11--7--------9-9--11--7--
--------------------------------
--------------------------------

---------------------------------------
-----7-7-9-9-10------------------------
-9--9-9---9---------9--11-11--8-8--9-9-
-7------------------9--9--9---9-9--9-9-
---------------------------------------
---------------------------------------

Prechorus:
-------------------
-s7--s9--s8--s10---
-------------------
-------------------
-------------------
-------------------
F#m G#m A B

Chorus:
Rhythm (octaves)
---------------------------------
---------------------------------
-9-11-13-9------9-11-7-----------
---------------------------(x2)--
-7-9--11-7------7-9--5-----------
---------------------------------
E F#m C#m A E F#m A

Lead
-----------------------------------
-9(x8)-10(x8)-----10p9-9-9-9p7-7-7-
-------------9(x8)-----------------
-----------------------------------
-----------------------------------
-----------------------------------

----------------------10-9b10r9---
--9(x8)-10(x8)-7(x8)-7--7---------
----------------------------------
----------------------------------
----------------------------------
----------------------------------

-----------------------------------
-9(x8)-10(x8)-----10p9-9-9-9p7-7-7-
-------------9(x8)-----------------
-----------------------------------
-----------------------------------
-----------------------------------

-----------------------------
--9(x8)-10(x8)-7(x8)-7~------
-----------------------------
-----------------------------
-----------------------------
-----------------------------

Solo:
----------------------
-9-9-9-10-10-10-12-10-
----------------------
----------------------
----------------------
----------------------
E F#m E A

------------------------------------------
--9-9-9-10-10-10-12-12b13r12-10-12--------
------------------------------------------
------------------------------------------
------------------------------------------
------------------------------------------



---------------------12-12s14--14s16-17-
-9-9-9-10-10-10-12-12--------12---------
----------------------------------------
----------------------------------------
----------------------------------------
----------------------------------------

-16--14b15r14p12h14p12------14--
---17-----------------13--12----
--------------------------------
--------------------------------
--------------------------------
--------------------------------

Bridge (after solo):
E C#m B A

5 comments:

Anonymous said...

Whoo.. what guitar is that?

Anonymous said...

i think its a gibson white falcon if im not wrong

vitteh said...

lol....sorry it's neither a gibson les paul or a gretsch white falcon.

The guitar is an epiphone les paul custom :)

Anonymous said...

hi, i'm the who requested this song..
thank you so much!!!! i tried my very best to transpose the tab in the key of A but sadly i can't.. would you mine to tab it in the key of A?? Thanks in advance, GODcare...

Anonymous said...

Your first note of the intro riff is wrong, its an F# and not E.

Correct tabs should be

--------------12----11---------------------
----7------------9--------------------------
--9--(x2)--11h13----11---11-8-9--4-4-6-6-2-2-
-9-9----------------------------4-4-6-6-2-2-
--------------------------------2-2-4-4-0-0-
--------------------------------------------