You Reign

By Jerome

Here are the tabs for You Reign song by Hillsong United.



Intro: add some delay here
----------------------------
---12-10-12-10--12-10--9-10-
--------9-------------9-----
-11-----------12------------
----------------------------
----------------------------
repeat this 2x

Pre-Chorus:
2nd guitar with Delay effect...
- 27% of Level
- 30% Feedback (4 dotted delay)
_ 55% of Time
_ 500ms stereo delay

repeat 2x
-------------------------------
-14-----14-14-----12-12--------
---14-14-----14-14-----14-14---
-------------------------------
-------------------------------
-------------------------------

-------------------------------
-12-12--------------------------
------14-14-13-13-----13-13------
-----------------14-14-----14-14-
-------------------------------
-------------------------------

-------------------------------
-------------------------------
---11---11---------------------
-14---14-----------------------
-------------------------------
-------------------------------

Followed by: Chorus repeated 4x
-------------------------------
-------------------------------
-14--14--14--14--13--13---11-13-
---14--14--14--14--14--14-------
-------------------------------
-------------------------------

Instrumental:
-------------------------------
-14-14-14-14-12-12-10----------
-14-14-14-14-13-13-11--(2x)----
-------------------------------
-------------------------------
-------------------------------

-12-12-12-12-12-10-10-9--------
-------------------------------
-------------------------------
-------------------------------
-------------------------------
-------------------------------

followed by:

------------
-10---------
-12b14------ 8x
------------
------------
------------

repeat the whole part 2x.

Chords
Intro:
(A, F#m, D, E) X2

Verse 1 & 2:
A F#m D E

Chorus:
D A E

Bridge:
F#m D A E

Ending:
D F#m E

9 comments:

Anonymous said...

Nice! I dont know how u manage to get this stuff!

Anonymous said...

could you post the chords?

sk said...

good stuff there man! but it may be wise to play this for the instrumental part. just how i play it.

-12-12-12-12-12-10-10-9--------
-10-10-10-10-10-10-10-10-------
-------------------------------
-------------------------------
-------------------------------
-------------------------------

ps:cant believe you got a new guitar from your pastor! i wish i could get one too.haha

Thomas said...

here's how I play it, and how I hear it:
Intro: w/delay
---7-5---7-5---7-5---4-5----
-------5-----------5--------
-6-----------7--------------
----------------------------
----------------------------
----------------------------
repeat this 2x

Prechorus:
----------------------------
-14--14--12-14--------------
---14--14-----14------------
----------------------------
----------------------------
----------------------------

----------------------------
----------------------------
-13--13--11-13--------------
---14--14-----14------------
----------------------------
----------------------------


Chorus:
Repeat this through the Chorus
----------------------------
----------------------------
-14--14--14--14-------------
---12--14--14--14-----------
----------------------------
----------------------------

----------------------------
----------------------------
-13--13--11-13--13----------
---14--14-----14------------
----------------------------
----------------------------

Instrumental:
-9--9--9--9--7-7-5-5--------
-10-10-10-10-9-9-7-7--------
----------------------------
----------------------------
----------------------------
----------------------------
Play 2X, then:

-12-12-12-12-12-10-10-9-----
-10-10-10-10-10-10-10-10----
----------------------------
----------------------------
----------------------------
----------------------------

----------------------------
-10-10-10-10-10-10-10-10----
-13-bend-to--14--b-13-13----
----------------------------
----------------------------
----------------------------

Bridge:hit each chord once, on the downbeat. Repeat 2X.
-9----9----9----7-----------
-10---10---10---9-----------
-11---7----9----9-----------
----------------------------
----------------------------
----------------------------

There's another one of those bends just like at the end of the instrumental, and it replaces the 799 chord, going until everyone drops out.

Anonymous said...

hey thomas, your scales are not in A major haha. Jerome's is in A major scale

Thomas said...

what do you mean that it's not in the A major scale?

Colin said...

Thomas your correct in my opinion about the intro at the top of the comments but you can subsitute the 7 on the 3 string for 3 on the 2nd but i think your on point

longge said...

There are humans who may try to canyon off a affected Replica IWC as a replica. Therefore , it is actual important to apperceive some facts apropos the absolute replicas. Replica watches are 18-carat stuffs and they are fabricated afterwards the designs of their aboriginal counterparts. And aloft all , if your ardent desires get so calmly fulfilled.

maher said...

replica watches swiss are one of the most popular luxury watch brands in the world. They are known for their outstanding quality and long tradition of quality timepieces. Much like any name brand that has proven itself to be reliable and of high quality, chanel replica watches are not for shoppers looking to spend only a little money for a watch. If a Alain Silberstein is truly out of reach financially, there are plenty of online retailers that offer costs drastically below those of the genuine article. While these watches might still be a little more expensive than most watches, they are a good deal cheaper than authentic Breitling watches.