Szabadito (A Hungarian Worship Song)

I don't understand a word of Hungarian, but as requested, here's the opening solo for the song, pretty neat!



Tabs
--------------------------------
--------------------------------
-----9-11b13-b13-b13r11-9-11----
-s11----------------------------
--------------------------------
--------------------------------

-------------------9-9-9-9-9-11s8-8-
-------12----12b14------------------
-11s13----13------------------------
------------------------------------
------------------------------------
------------------------------------

---------9------------------------------------
-------9---9-12-9----9-------9----------------
-11b13------------11---11b13---11-9-11-9------
-----------------------------------------11-9-
----------------------------------------------
----------------------------------------------

----------------------
----------------------
-9b11---------9-------
------11p9h11---------
----------------------
----------------------

---9-11-12-12b14-12-------14b16-b16r14-12-14-
--9-----------------14-14--------------------
-9-------------------------------------------
---------------------------------------------
---------------------------------------------
---------------------------------------------

4 comments:

rem_sr said...

awesome kenny.. thank you for your help, I'm already practicing.. ;)

Be blessed!

Anonymous said...

Kenny I'm finding this difficult to follow, I don't think the tab is the same as the video,could you please retab it or do it again slower?

konyves_kalman said...

hi kenny

I'm from hungary, and i tell you 'szabadító' means : Saviour, or liberator.

at all you made a really good video keep it up!

Krisztian said...

this is really awesome! btw I'm from Hungary too :P