Light of Salvation

Just bought Desperation Band's latest cd, Everyone Overcome, so expect to see more songs from them here! Here's the first song in the cd. Use dotted 8th delays.



Tabs

Intro

---------10-7---------
---8-7-8------10-8-7--
-9--------------------
----------------------
----------------------
----------------------
Em G C Bm

Verse
Same chords as Intro
-----------------------------
-----------------------------
-----------------------------
-----------------------------
-----3-2--[use palm mutes]---
-0-3-------------------------

---------10-7---------
---8-7-8------10-8-7--
-9--------------------
----------------------
----------------------
----------------------

Chorus
G D Em C Em D C C

Instrumental
------12-10----7--------
-8-12--------8---8-7----
------------------------
------------------------
------------------------
------------------------

Bridge
With rotary-horn effect (makes it sound a little like an organ)
---10---------------7---
--------8---8---8-7-----
-9----9---8---8---------
------------------------
------------------------
------------------------

---10---------------10--
--------8---8---8-7-----
-9----9---8---8---------
------------------------
------------------------
------------------------

After that, strum Am Em G D. 'Jump' the chords by lifting your fretting fingers to mute them.

2nd half of the bridge
-10-12-------------------------------------
-------12-12-10---then end with-8----------
----------------------to return to chorus--
-------------------------------------------
-------------------------------------------
-------------------------------------------

3 comments:

Anonymous said...

---10---------------7---
--------8---8---8-7-----
-9----9---7---7---------
------------------------
------------------------
------------------------

---10---------------10--
--------8---8---8-7-----
-9----9---7---7---------
------------------------
------------------------
------------------------

the g string 8's should be 7's

Anonymous said...

great tab thanks =)

longge said...

The Swiss Customs account estimates that amid 30 and 40 actor affected Replica Watches links are awash every year. This agency that there's a actual acceptable adventitious that you ability be accepting a affected watch if you buy online. The online bazaar abode is a absolute area for affected watches because abounding arrangement hunters boutique online.