Unconditional Love

By Jerome

Here's Unconditional Love by Marco Barrientos



Instrumental:
--------------------------
-15---------15-----13-----
---12-14------12-14-------
--------12----------------
--------------------------
--------------------------

-15-------15--15--15------
---12-13----12--12--------
--------------------------
--------------------------
--------------------------
--------------------------

-15-----------20--19------
---12-13-15-----20--17----
--------------------------
--------------------------
--------------------------
--------------------------

--------------10--19--17--
-17-19-20---17--17--17----
--------------------------
--------------------------
--------------------------
--------------------------


-17-----------------------
---19-17b18r17-17---------
--------------------------
--------------------------
--------------------------
--------------------------

---20--19--17--17-------------
-17--17--17------19-17-19-20--
------------------------------
------------------------------
------------------------------
------------------------------

4 comments:

FrAd said...

wow! ! ! this song is very good

inusualford said...

Hello how are you God bless you and keep using it but just wanted comentarte this excellent video and wanted to ask you if you help me with the song by Marco Barrientos, ´´Cree todo es posible`` carry little time with the guitar and ask you to help me God bless you bey...

joy said...


Good day! I was so impressed to have seen a great artwork. You've done a great job.Well, thank you for sharing your talent and article it is very well appreciated by me. You can also visit my site if you have time.


n8fan.net

www.n8fan.net

Leslie Lim said...

I read your blog.I thought it was great.. Hope you have a great day. God bless.

Rica
www.imarksweb.org