Tell the World

By Hillsong United. This is way overdue, but hope you like it!


Bass Riff (intro & verse)
-------------------------------------
-------------------------------------
-------------------------------------
-4-4-4-2-2-2-------------------------
-------------4-4-5-5-5-4-4-4-0-0-----
-------------------------------------

Intro Riff
-------------------------------------
-7----7----7----7--------------------
-9b11-9b11-9b11-9b11--7-7-7-7-7-6-6--(x4)
-------------------------------------
-------------------------------------
-------------------------------------

Verse Riff 1:
-------------------------------------
--------------------14-14-14---------
-11-11-11-11--11-11------------------
--------------------11-11-11---------
-9--9--9--9---9--9-------------------
-------------------------------------

-------------------------------------
--------------12-12-12-10-10-10-9-9--
-11-11-11-11-------------------------
--------------9--9--9--7--7--7--6-6--
-9--9--9--9--------------------------
-------------------------------------

Verse Riff 2:
-------------------------------------
-------------------------------------
-------14-14-11-11-11-11--11 (x8)----
-11-11-------------------------------
-------------------------------------
-------------------------------------

Another guitar plays the bass riff at this part.

Chorus:
A E F#m D

Bridge
A Bm F#m D

I play the Mighty to Save riff over the initial part.

-------------------------
----0-----0----0------0--
--2-----2----2------2----
------------------0------
-0-----2-----------------
------------2------------

Use the 2nd verse's riff at the end.

11 comments:

Anonymous said...

Hey, that sounded cool, but on the mighty to save part, could you take off the delay or chorus (i still haven't fully memorized the effects on a guitar)

han said...

what kind of distortion effects do you use?

kenny said...

pod xt live. In this song, hiwatt + rat distortion simulations.

Ryan said...

For the bridge part, there's another electric guitar in there other than the riff that you covered.
Do you know what chords the other electric guitar is playing? i'm not sure if it's just an A CHORD all the way through the bridge or not. i'm pretty sure it's a wah effect too

Anonymous said...

can you tell me what number patch you used? i'd appreciate it

Toby said...

hey guys thanks fr this awesome website its helped me so much. i get so lost when it comes to figuring ot gutiar parts, so thank you so much and keep up the good work!

Your Brother in Christ,
Toby

south coast guitarist said...

hey nice playing i know its been while since you have posted this but could u tab that improvized solo?? itd be a great bonus to the song.

Anonymous said...

hey,

nice playing, but i'm wondering how do you play the end!

on the cd is an outro, but you quit with the chorus!

thanks

Anonymous said...

KENNY PLZ ANSWER BACK

IS IT REALLY NESSECARY TO HAVE A SECOND GUITAR IN THIS SONG?
AND IF SO LIKE IN WHAT PARTS?

PLZ AS THE ONLY FAVOR THAT YOU WILL DO ME IN THE LORD'S NAME

kenny said...

it'd sound nicer, but not absolutely necessary..

greg said...

dude! your good
thanks i gotta learn this song=D for a concert