Majesty (Here I Am) (Bass)

By Bass Levite


The intro and verse bass riff is simply the descending pentatonic scale of A#m.




Verse:

-3-1-----------3-1-----------
-----3-1-----------3-1-------
---------4-1-1---------4-1-1-
-----------------------------

-3-1-------3-1-----------
-----3-1-------3-1-------
-------------------4-1-1-
---------1---------------

-3-1-------3-1---------
-----3-1-------3-1-----
-------------------3-0-
---------1-------------

To repeat verse, play this, otherwise go straight to prechorus:

-------
-------
-4-1-1-
-------


Prechorus:

Usually the bass doesn't play the melody of the song, but sometimes you can do it to add a little spice into it!

-----------------
-------3-4-3-----
-1-3-4-------6-4-
-----------------

Improvised this part (original just play the root notes and leave it hanging).

---------------------
---------------------
-1-3-3h4-4-4-4-------
---------------3-3-3-

---------------------
-----------4-4-4-4-6-
-------4h6-----------
-2-2-2---------------


Chorus:

| Db | Ab | Bbm | Gb | 2x

4 comments:

Anonymous said...

Hey, thanks for the tab. God has answered by prayer by giving you the talent to tab out the request that I've asked. God bless.

David said...

thank u much for the tabs have been trying to figure out this riff

Chris said...

That's great, can you play Give it what you got and God is smiling by Delirious?

barry said...

How do I view the video? It says need sender's friend request.