My Generation (bass)

By Bass Levite


Intro:



-------------------------
-------------------------
-------------------------
-4-4-4-4-4-4-5-5-5-5-5-5-

-------------------------
-------------------------
-7-7-7-7-7-7-8-8-8-8-8-8-
-------------------------


Verse:



-------------
-2-----------
---3-3-0-3-3-
-------------


Chorus:



-------------0h2-2-2-
---0h2-2-2-----------
-----------0---------
-0-------------------

---------------
---0h2-2-2-----
-----------3-5-
-0-------------


Solo:

Not very smooth...



-----------------
-------6---------
-7---7---9-7-6-7-
---7-------------

-----------------
-------6-----7-9-
-7---7---9-7-----
---7-------------

------------------------
-10----12-10-9----12-10-
----10---------12-------
------------------------

---------------------
-9-------------------
---12-9-10-12-10-9---
-------------------7-

4 comments:

jonathan said...

dang i didnt think anyone would actually know this solo..thx

Anonymous said...

the way I learned it was

--------1----------
------2---4--1--2--
----2-------------2
--4----------------

--------1---------
------2---4--1--2-
----2-------------
--4---------------

--4-5---7-5-4---5-4-2-
------2-------2-------
----------------------
----------------------

----------------------
--5-4-5-7-5-4-5-------
----------------------
----------------------

Thats how I learned it, but I cant nearly play as fast as you can.
Good job on the tabs and on the effort playing

God bless

Ryan said...

in the intro, the 7 and 8 are still on the E string. Just a little thing i noticed.
PS-thanks for all the tabs GOD BLESS!

ohSEXY said...

Y are the videos private???