In the Secret (Bass)

By Bass Levite

Intro:



The intro is based on the Ab pentatonic scale. I usually use it to build up a chourus when it's repeated, but this song uses it as an intro.

-------------------
-----8-6---6-------
---------8---6-----
-4s6-----------8-6-


Solo:



This solo is strange, because it uses some notes which are not in the key of the song!

-4-3---3-------
-----4---4-3---
-------------4-
---------------

-------------------------
-------------------------
-2h4-2h4-------1-------1-
---------1-1h2---1-1h2---

1 comment:

Daniel Dude said...

hey your videos are private so i can't watch them.