In Your Freedom

By Jerome

Here's the song that i like most in Hillsong's Saviour King it has good message. Here are the tabs and use some delay in this song. Have Fun!



Intro:
-7-9-10-5---
------------
-4-6-7--2---
------------
------------
------------

-7-9-10----
-----------
-4-6-7-----
-----------
-----------
-----------


-7-9-10-------
----------(7)-
-4-6-7--(7)---
--------------
--------------
--------------

-7-9-10-5--7-9-10-9--
---------------------
-4-6-7--2--4-6-7--6--
---------------------
---------------------
---------------------

Pre-Chorus:
--------------------------------
-------------------7-7-7-7---
-7-7-7-7-6-6-6-6--7-7-7-7--6-6-6-6-
--9-9-9-9-7-7-7-7-----------7-7-7-7
--------------------------------
--------------------------------



--------------------------------
--------------------------------
-7-7-7-7-6-6-6-6--4(8x)-6-6-6-6-
--9-9-9-9-7-7-7-7--------7-7-7-7
--------------------------------
--------------------------------

Chorus:
--------------------------------
-7-7-7--7-----------------------
----9--9------------------------
-----------11-11-11-9-11--------
--------------------------------
--------------------------------

--------------------------------
--------------------------------
--------------------------------
-12-12-11-12-11-12-9-9-7-9-7-9---
--------------------------------
--------------------------------


--------------------------------
-7-7-7--7-----------------------
----9--9------------------------
-----------11-11-11-9-11--------
--------------------------------
--------------------------------

--------------------------------
--------------------------------
-12-12-11-12-11-12----16--------
--------------------12----------
--------------------------------
--------------------------------

Verse II:(play each note four times)
---------
---------
-4-6-7-2- (repeat 4x)
---------
---------
---------


--------------------------------
------------7-------------------
-4-6-7-6-7-2-7-6-7-2-4-6-7------
--------------------------------
--------------------------------
--------------------------------

Chorus II: strum
D-A-Bm-G


Instrumental:
--------------------------------
-7-7-7-7-7-7--------------------
----9-----9--11-11-9-11-11-11-9-
--------------------------------
--------------------------------
--------------------------------


--------------------------------
-7-7-7-----------12---------9---
--9---9--11b12r11---11b12r11----
--------------------------------
--------------------------------
--------------------------------
(Pick fast this notes refer to the vid.)

-9-10-12-14-15---
-----------------
-----------------
-----------------
-----------------
-----------------


Bridge:(repeat this part 2x)
--------------------------------
-7-7-7-7-7-7--7-7-7-7-7-7-------
----9-----9------9-----9--------
--------------------------------
--------------------------------
--------------------------------


--------------------------------
-7-7-6-7-7-7-6-7-7-7-6-7-7-7-6-7
--------------------------------
--------------------------------
--------------------------------
--------------------------------


--------------------------------
--------------------------------
-7-7-7-7-7-7-7-7-9-9-9-9-9-9-9-9
--------------------------------
--------------------------------
--------------------------------

15 comments:

William said...

Nice work

Anonymous said...

i think you tabbed some parts wrong..

Marcelo from chile said...

the intro is wrong

e -------------
b -------------
g -4--6--7--2--
d -------------
a -2--4--5--0--
E -3--5--7--2--

Anonymous said...

Great work, but I think the intro & verses should be like this. God bless.

e -------------
b -------------
g -4--6--7--2--
d -------------
a -------------
E -3--5--7--2--

Jabez said...

kenny can you tab this song again, i don't think jerome's tabs are right

Stephen said...

Yeah, some lines are missing. Go up a string on the Pre-Chorus, same thing on the 11-11-11-9 on the Chorus and instrumental

Stephen said...

FIXED (although marcelo's intro is not bad):

In your Freedom
Intro:
-7-9-10-5---
------------
-4-6-7--2--- (Repeat 4x)
------------
------------
------------

-7-9-10-------
----------(7)-
-4-6-7--(7)---
--------------
--------------
--------------
-7-9-10-5--7-9-10-9--
---------------------
-4-6-7--2--4-6-7--6--
---------------------
---------------------
---------------------

Pre-Chorus:

--------------------------------
-----------------7-7-7-7--------
-7-7-7-7-6-6-6-6--7-7-7-7-6-6-6-6-
--9-9-9-9-7-7-7-7----------7-7-7-7
--------------------------------
--------------------------------

--------------------------------
--------------------------------
-7-7-7-7-6-6-6-6--4(8x)-6-6-6-6-
--9-9-9-9-7-7-7-7--------7-7-7-7
--------------------------------
--------------------------------

Chorus:
--------------------------------
-7-7-7--7-----------------------
----9--9------------------------
--------------11-11-11-9-11-----
--------------------------------
--------------------------------
--------------------------------
--------------------------------
--------------------------------
-12-12-11-12-11-12--9-7-9-7-9-----------------------------------------
--------------------------------

--------------------------------
-7-7-7--7-----------------------
----9--9------------------------
-----------11-11-11-9-11--------
--------------------------------
--------------------------------

--------------------------------
--------------------------------
----------------------16--------
-12-12-11-12-11-12--------------
--------------------12----------
--------------------------------


Verse II:(play each note four times)
---------
---------
-4-6-7-2- (repeat 4x)
---------
---------
---------
--------------------------------
------------7-------------------
-4-6-7-6-7-2--6-7-2-4-6-7------
--------------------------------
--------------------------------
--------------------------------

Chorus II: strum
D-A-Bm-G
Instrumental:
--------------------------------
-7-7-7-7-7-7--------------------
----9-----9---------------------
-------------11-11-9-11-11-11-9-
--------------------------------
--------------------------------
----------------------------9---
-7-7-7-----------12-------------
--9---9--11b12r11---11b12r11----
--------------------------------
--------------------------------
--------------------------------





(Pick fast this notes refer to the vid.)

-9-10-12-14-15---
-----------------
-----------------
-----------------
-----------------
-----------------


Bridge:(repeat this part 2x)
--------------------------------
-7-7-7-7-7-7--7-7-7-7-7-7-------
----9-----9------9-----9--------
--------------------------------
--------------------------------
--------------------------------

--------------------------------
--------------------------------
-7-7-6-7-7-7-6-7-7-7-6-7-7-7-6-7
--------------------------------
--------------------------------
--------------------------------




--------------------------------
--------------------------------
-------------------------------- x2
-7-7-7-7-7-7-7-7-9-9-9-9-9-9-9-9
--------------------------------
--------------------------------

Anonymous said...

I think tab of Jerome is very GOOD!!!
But Intro of Marcelo isn't right!
Intro of Anonymus is good too.
These are my opinion.

How many time for you tab the songs???
This question is important me... Can answers sy me??? Please!!!

Anonymous said...

it's true.. Jerome's tabs are wrong.
half of the time, the tabs that he posts are wrong.

Anonymous said...

Marcelo's tab for the intro is right!!
watch this video for proof.. watch the guitarist, the one with the rings.. watch his hand and the shape his fingers make on the strings. it matches up with the shape you would have to do for marcelo's intro!

watch it!
http://youtube.com/watch?v=o_USEArv8Ak

Anonymous said...

the tabs jerome has are just on the wrong lines that's all. theyre off by one string.

Dan said...

yes the intro is wrong (didn't bother checking rest of the tab) watch the OFFICIAL vid of the song. marty sampson is clearly holding the low E string and the G string. Sorry but I love this site for it's correct tabs, and i dont like other sites for their VARIATIONS of how to play a song.

dan said...

woops meant Nigel Hendroff

darkside said...

hey, any idea what is the delay settings for this song? im using a pod xt live

christiangarzonn said...

great job men, but a recommendation for the instrumental, it kind of sound better this way

Instrumental:
--------------------------------
-7-7-7-7-7-7--------------------
----9-----9----6-6-6-6-6--------
------------------9-----9--------
--------------------------------
--------------------------------
----------------------------9---
-7-7-7-----------12-------------
--9---9--11b12r11---11b12r11----
--------------------------------
--------------------------------
--------------------------------