Your Grace is Enough

By some remarkable coincidence, Daryl and Jerome sent me the tabs & video of the same song. Here it is, Daryl's on top, and Jerome's below.. you might find how different the same song and riffs can be interpreted.

If you are looking for the acoustic parts of the song, check out the 2nd half of the first video by Daryl.

Daryl's Version



Intro
|------------------------------
|--10-12------9-10----12-9-10--
|------------------------------
|--7--9-------6-7-----9--6-7---
|------------------------------
|------------------------------

|----------------------
|--10-9-7-5-10-9-10-14-
|----------------------
|--7--6-4-2-7--6-7--11-
|----------------------
|----------------------

|------------------------------
|--10-12------9-10----12-9-10--
|------------------------------
|--7--9-------6-7-----9--6-7---
|------------------------------
|------------------------------

|-------------------------
|--10-9-10-14-12-14-12-10-
|-------------------------
|--7--6-7--11-9--11-9--7--
|-------------------------
|-------------------------

Verse
|---------------------
|--7-9-10---7----9-10-
|---------9-----------
|-----------4----6-7--
|---------------------
|---------------------

After bridge (Acoustic)
|--------------
|--10----------
|--9--9-11-----
|--7--9-11-11--
|-----7-9--11--
|----------9---

Jerome's Version
VoilĂ , Here's the song that some of u are waiting for. Use distortion and some delay in the verse and chorus. I think I could do better on the vid, but you should be able to follow it.



Intro: Repeat twice the notes inside " "
----------------------------
--10-10-10-"12-9-10-12-9-10-
----------------------------
----------------------------
----------------------------
----------------------------
-----------------------------
--10-9-----10-9-10"-14-14-14-
------11-9-------------------
-----------------------------
-----------------------------
-----------------------------
------------------------------
-10-10-10-"12-9-10-12-9-10-10-
------------------------------
------------------------------
------------------------------
------------------------------

--------------------------------
-14-14-14-14-12-14-14-14-14"----
--------------------------------
--------------------------------
--------------------------------
--------------------------------

------------
--12-12s10--
------------
------------
------------
------------
Verse I:
-------|-------------|---------|-------------
-------|-------9-10--|--9-10---|----9-10-----
-9--9--|----9-------9|--------9|----------9--
---7--7|--7----------|-7-------|--7----------
-------|-------------|---------|-------------
-------|-------------|---------|-------------

Chorus:
A E A D
-----------------------
-10--9--10--10---------
-9---9--9---7----------
-7---9--7---7----------
-----7-----------------
-----------------------

Verse II:
----------|--------------|----------
----------|--------------|----------
-9---9----|--------------|-----6----
---7---7--|-7-6-4-4s6-4s2|-7-9---7--
----------|--------------|----------
----------|-------------------------
---------|---------
---------|---------
-6-4-----|-6-4-----
-----7-4-|----7-4--
---------|---------
---------|---------

7 comments:

Tim said...

Hey. Good job on the two interpretations of Your Grace Is Enough. Not trying to sound like a know-it-all, but Dan Carson actually put out the electric tabs for the song, and for the Arriving Cd. The open G string if you capo 2 fills up the sound, but that's just my opinion. It's refreshing to see different ways to play a song, or else it gets boring.

Anonymous said...

may i ask of a request? can you put the way i live by cris tomlin? pls that would be great! thanks

Anonymous said...

yeah i play the open G string version.
if you want i'll try to help out

Winnie said...

can you tab the chords right after the prechorus and right before the chorus???

longge said...

Swiss are accepted for their baroque accomplish of admirable swiss replica watches all over the world, and the Swiss replica watches are accepting added and added accepted in contempo years for they accredit humans to adore the aforementioned affluence at affordable rates. They can enhance your attending as able-bodied as acting as a attribute of aftertaste and status.

Daniel said...

Hi. Can I request a tab for Eternal by Sanctus Real? Thanks.

Michael Estep said...

Daryl's Video doesn't work anymore can you post the link?